Kiss - Strutter Chords & Tabs

 

Strutter Chords & Tabs

Kiss Chords & Tabs

Version: 2 Type: Tab 0 ratings
1 star 2 stars 3 stars 4 stars 5 stars
comments

Strutter Tab

#-----------------------------------------------------------------------------#
#-- File created with Instab - http://www.pconline.com/~smcarey/instab.html --#
#-----------------------------------------------------------------------------#

Author/Artist: Kiss
Title: Strutter
Album: kiss
Transcribed by: Space Ace
Email: butler@centurytel.net

Intro
Verse
Chorus
Interlude 1
Verse
Chorus
Interlude 2  or Solo
Verse
Chorus
Interlude 3 or Outro Solo

-7-7--7-----------------------------------------------------------------------
-7-7--7-----------------------------------------------------------------------
-8-8--8-----------------------------------------------------------------------
-9-9--9-------------------x--12--12--14--12--14--12---------------------------
-9-9--9--9--11--9--11--9--x--10--10--10--10--10--10---------------------------
-7-7--7--7--7---7--7---7------------------------------------------------------
 Intro                                                                        

------------------------------------------------------------------------------
------------------------------------------------------------------------------
------------------------------------------------------------------------------
-7-7--7--7--9--7--9--7--x--2--2--4--2--4--2-----------------------------------
-5-5--5--5--5--5--5--5--x--0--0--0--0--0--0-----------------------------------
------------------------------------------------------------------------------
                                                                              

-7-7--7-----------------------------------------------------------------------
-7-7--7-----------------------------------------------------------------------
-8-8--8-----------------------------------------------------------------------
-9-9--9-------------------x--12--12--14--12--14--12---------------------------
-9-9--9--9--11--9--11--9--x--10--10--10--10--10--10---------------------------
-7-7--7--7--7---7--7---7------------------------------------------------------
                                                                              

-7-7--7--------------------------------------------------------|--------------
-7-7--7--------------------------------------------------------|--------------
-8-8--8--------------------------------------------------------|--------------
-9-9--9-------------------x--7--7--9--7--9--7----7--9--7--7--7-|--------------
-9-9--9--9--11--9--11--9--x--5--5--5--5--5--5----5--5--5--5--5-|--------------
-7-7--7--7--7---7--7---7---------------------------------------|--------------
                                                  end intro                   

-7-7--7-----------------------------------------------------------------------
-7-7--7--------------------------------------------7--8--8--8--8--8--7--------
-8-8--8--------------------------------------------7--7--7--7--7--7--7--------
-9-9--9-----------------------x--7--7--9--7--7--7--7--9--9--9--9--9--7--------
-9-9--9-----5--5--7--5--5--5--x--5--5--5--5--5--5-----------------------------
-7-7--7--0--3--3--3--3--3--3--------------------------------------------------
 Verse                                                                        

-7-7--7-----------------------------------------------------------------------
-7-7--7-----------------------------------------------------------------------
-8-8--8-----------------------------------------------------------------------
-9-9--9-----------------------x--7--7--9--7--7--7--x--2--2--4--2--4--2--------
-9-9--9-----5--5--7--5--7--5--x--5--5--5--5--5--5--x--0--0--0--0--0--0--------
-7-7--7--0--3--3--3--3--3--3--------------------------------------------------
                                                                              

-7-7--7-----------------------------------------------------------------------
-7-7--7--------------------------------------------7--8--8--8--8--8--7--------
-8-8--8--------------------------------------------7--7--7--7--7--7--7--------
-9-9--9-----------------------x--7--7--9--7--7--7--7--9--9--9--9--9--7--------
-9-9--9-----5--5--7--5--5--5--x--5--5--5--5--5--5-----------------------------
-7-7--7--0--3--3--3--3--3--3--------------------------------------------------
                                                                              

-7-7--7-------------------------------------------------------------------|---
-7-7--7-------------------------------------------------------------------|---
-8-8--8-------------------------------------------------------------------|---
-9-9--9-----------------------x--7--7--9--7--7--7--x--2--2--4--2--4--2--4-|---
-9-9--9-----5--5--7--5--7--5--x--5--5--5--5--5--5--x--0--0--0--0--0--0--0-|---
-7-7--7--0--3--3--3--3--3--3----------------------------------------------|---
                                                               end verse      

------------------------------------------------------------|-----------------
------------------------------------------------------------|-----------------
------------------------------------------------------------|-----------------
-4-4--4--4-4--x---------------x--4-4--4--4-4--x-------------|-x-----4--4--4---
-2-2--2--2-2--x--5-5--5--5-5--x--2-2--2--2-2--x--5-5--5--5-5|-x--0--2--2--2---
-----------------3-3--3--3-3---------------------3-3--3--3-3|-----------------
 Chorus                                                      Interlude 1      

------------------------------------------------------------------------------
------------------------------------------------------------------------------
-----------------------4--4--4----7--9----------------------------------------
---4--4-----4--4----0--2--2--2----7--9----------4--4--4-----------------------
-0-2--2--0--2--2--2---------------5--7--0----0--2--2--2-----------------------
-------------------------------------7----2-----------------------------------
                                                                              

--------------------------------------------|---------------------------------
---------------------------------------3----|---------------------------------
------------------------4--4--4--------2--2-|---------------------------------
----4--4-----4--4----0--2--2--2-----5--0--2-|---------------------------------
-0--2--2--0--2--2--2-------------5--3-----0-|---------------------------------
---------------------------------3----------|---------------------------------
                         end interlude 1                                      

------------------------------------------------------------------------------
------------------------------------------------------------------------------
-----------------------------------------4--4--4----7--9----------------------
-x-----4--4--4-------4--4-----4--4----0--2--2--2----7--9----------4--4--4-----
-x--0--2--2--2----0--2--2--0--2--2--2---------------5--7--0----0--2--2--2-----
-------------------------------------------------------7----2-----------------
  interlude 2                                                                 

------------------------------------------------------------------------------
------------------------------------------------------------------------------
------------------------4--4--4----7--9---------------------------------------
----4--4-----4--4----0--2--2--2----7--9----------4--4--4----------------------
-0--2--2--0--2--2--2---------------5--7--0----0--2--2--2----------------------
--------------------------------------7----2----------------------------------
                                                                              
[ Tab from: http://www.guitartabs.cc/tabs/k/kiss/strutter_tab_ver_2.html ]
--------------------------------------------|---------------------------------
---------------------------------------3----|---------------------------------
------------------------4--4--4--------2--2-|---------------------------------
----4--4-----4--4----0--2--2--2-----5--0--2-|---------------------------------
-0--2--2--0--2--2--2-------------5--3-----0-|---------------------------------
---------------------------------3----------|---------------------------------
                           end interlude 2                                    

------------------------------------------------------------------------------
------------------------------------------------------------------------------
-----------------------------------------4--4--4----7--9----------------------
-x-----4--4--4-------4--4-----4--4----0--2--2--2----7--9----------4--4--4-----
-x--0--2--2--2----0--2--2--0--2--2--2---------------5--7--0----0--2--2--2-----
-------------------------------------------------------7----2-----------------
 interlude 3                                                                  

------------------------------------------------------------------------------
------------------------------------------------------------------------------
------------------------4--4--4----7--9---------------------------------------
----4--4-----4--4----0--2--2--2----7--9----------4--4--4----------------------
-0--2--2--0--2--2--2---------------5--7--0----0--2--2--2----------------------
--------------------------------------7----2----------------------------------
                                                                              

-------------------------------------------------|----------------------------
-----------------------------------------3-------|----------------------------
------------------------4--4--4----------2--2----|----------------------------
----4--4-----4--4----0--2--2--2-------5--0--2--4-|----------------------------
-0--2--2--0--2--2--2---------------5--3-----0--2-|----------------------------
-----------------------------------3-------------|----------------------------
                                end interlude 3                               

------------------------------------------------------------------------------
------------------------------------------------------------p-----------------
-9b----9b----9b----9b----9b----9b----9b--9b--9b--9b--9b--9br-7----7-----------
----------------------------------------------------------------9-------------
------------------------------------------------------------------------------
------------------------------------------------------------------------------
  solo                                                                        

---p-h--p-h--p-h--p-h--p-h--p-h--p-h--p---------------------------------------
-10-7-10-7-10-7-10-7-10-7-10-7-10-7-10-7--10bvvvvvvvvvvvvvvvvvvvvvvvvvvvvvvv--
------------------------------------------------------------------------------
------------------------------------------------------------------------------
------------------------------------------------------------------------------
------------------------------------------------------------------------------
                                                                              

----------------------------p---h---------------------------------------------
-10br--10br--10br--7--10--10-7\5-7--5--7--------------------------------------
------------------------------------------------------------------------------
------------------------------------------------------------------------------
------------------------------------------------------------------------------
------------------------------------------------------------------------------
                                                                              

---------p-----------------------------------------------------p--------------
----19-22-19----19-22b----22b----22b----22b----22b-22b-22b-22br-19----19-22---
-21----------21----------------------------------------------------21---------
------------------------------------------------------------------------------
------------------------------------------------------------------------------
------------------------------------------------------------------------------
                                                                              

---h--p---------------22br-19-------------|-----------------------------------
-19-22-19----19-22-19---------22br-19-----|-----------------------------------
----------21--------------------------21\-|-----------------------------------
------------------------------------------|-----------------------------------
------------------------------------------|-----------------------------------
------------------------------------------|-----------------------------------
                             end solo                                         

----7--7-----7--7-----7--7-----7--7-----7--7-----7--7-------------------------
----7--7-----7--7-----7--7-----7--7-----7--7-----7--7-------------------------
-9b-------9b-------9b-------9b-------9b-------9b------------------------------
------------------------------------------------------------------------------
------------------------------------------------------------------------------
------------------------------------------------------------------------------
 outro solo                                                                   

---p------------p----p---------p-----------------p-h--p-h--p-h--p-------------
-10-7---7--10-10-7-10-7---7--10-7---7------10--10-7-10-7-10-7-10-7------------
------9-----------------9---------9---9/11------------------------------------
------------------------------------------------------------------------------
------------------------------------------------------------------------------
------------------------------------------------------------------------------
                                                                              

------------------------------------------------------------------------------
-10b--7----------------------------------------------h-p------7--p------------
---------7b-----------------------------------------7-9-7---7---9-7---7-------
-------------9----7--9----7-------------------------------9---------9---------
-----------------------------9--7\5---h---5--7--9-----------------------------
-------------------------------------5-7--------------------------------------
                                                                              

---p-h--p-h-------------------------------------------------------------------
-10-7-10-7-10--12b----12b--12b--12b--12b--12b--12b--12b--12br-----------------
------------------------------------------------------------------------------
------------------------------------------------------------------------------
------------------------------------------------------------------------------
------------------------------------------------------------------------------
                                                                              

---h--p--------------10-11-12-10-11-12-10-11-12-10-11-12-10-11-12-10-12br-----
-10-12-10----10--12-----------------------------------------------------------
----------11------------------------------------------------------------------
------------------------------------------------------------------------------
------------------------------------------------------------------------------
------------------------------------------------------------------------------
                                                                              

-10h12p12----10----------------------------|----------------------------------
----------12----12b--10--------------------|----------------------------------
------------------------11--10--9--9\7-----|----------------------------------
---------------------------------------7h9-|----------------------------------
-------------------------------------------|----------------------------------
-------------------------------------------|----------------------------------
                       end outro solo                                         

Comments