Kiss - Strutter Chords & Tabs

 

Strutter Chords & Tabs

Kiss Chords & Tabs

Version: 3 Type: Bass Tab 0 ratings
1 star 2 stars 3 stars 4 stars 5 stars
comments

Strutter Bass Tab

Strutter by Kiss
Tabbed in Standard Tuning

G:----------------------------------------|
D:-----------------------------------1----|
A:1-1-1---------1-2-4-4-4-2-1------3---3/1|
E:------0-1-2-2---------------4--4--------|

G:----------------------------------------|
D:----------------------------------------| x2
A:1-1-1---------1-2-4-4-4-2-1----4-4-2-1--|
E:------0-1-2-2---------------4----------4|

G:----------------------------------------|
D:-----------------------------------1----|
A:1-1-1---------1-2-4-4-4-2-1------3---3\1|
E:------0-1-2-2---------------4--4--------|

G:--------------------------1-------------|
D:------------------------3---3-------1---|
A:1-1-1---------1-2-4-4-4-----------3---3\|
E:------0-1-2-2-----------------4-4-------|

G:--------------------------1----------1--|
D:------------------------3---3------3---3|
A:1-1-1---------1-2-4-4-4-------4--4------|
E:------0-1-2-2---------------------------|

G:--------------------------1-------------|
D:------------------------3---3-----------|
A:1-1-1---------1-2-4-4-4-----------------|
E:------0-1-2-2-----------------4--4-2-1-0|

G:----------------------|
D:----------------------|
A:1--1--------1--1------|
E:------2--2--------2--2|

(Chorus)
G:----------------------------------------|
D:----------------------------------------|
A:------------------------4-6--6---4---4--|
E:4-6--6--4-6-6--4-6-6--6------------6---4|

G:----------------------------------------|
D:----------------------------------------| 
A:1-1-1---------1-2-4-4-4-2-1----4-4-2-1--|
E:------0-1-2-2---------------4----------4|

G:----------------------------------------|
D:-----------------------------------1----|
A:1-1-1---------1-2-4-4-4-2-1------3---3\1|
E:------0-1-2-2---------------4--4--------|
[ Tab from: http://www.guitartabs.cc/tabs/k/kiss/strutter_btab_ver_3.html ]
G:----------------------------------------|
D:----------------------------------------| 
A:1-1-1---------1-2-4-4-4-2-1----4-4-2-1--|
E:------0-1-2-2---------------4----------4|

G:--------------------------1-------------|
D:------------------------3---3-----------|
A:1-1-1---------1-2-4-4-4-----------------|
E:------0-1-2-2-----------------4--4-2-1-0|

G:----------------------|
D:----------------------|
A:1--1--------1--1------|
E:------2--2--------2--2|

(During Solo)
G:----------------------------------------|
D:----------------------------------------|
A:------------------------4-6--6---4---4--|
E:4-6--6--4-6-6--4-6-6--6------------6---4|

G:----------------------------------------|
D:----------------------------------------| x2
A:1-1-1---------1-2-4-4-4-2-1----4-4-2-1--|
E:------0-1-2-2---------------4----------4|

G:--------------------------1-------------|
D:------------------------3---3-----------|
A:1-1-1---------1-2-4-4-4-----------------|
E:------0-1-2-2-----------------4--4-2-1-0|

G:--------------------------1----------1--|
D:------------------------3---3------3---3|
A:1-1-1---------1-2-4-4-4-------4--4------|
E:------0-1-2-2---------------------------|

G:----------------------------------------|
D:----------------------------------------|
A:1-1-1---------1-2-4-4-4-2-1-------------|
E:------0-1-2-2---------------4--4-4-2-1-0|

G:----------------------|
D:----------------------|
A:1--1--------1--1------|
E:------2--2--------2--2|

(Chorus)
G:----------------------------------------|
D:----------------------------------------|  x3
A:------------------------4-6--6---4---4--|
E:4-6--6--4-6-6--4-6-6--6------------6---4|

(Outro)
G:---------|
D:---------|
A:1--1~----|
E:---------|

Thanks, please rate after you learn it. 
Tabbed by:
_TheBassist01_
Comments