Kiss - Strutter Chords & Tabs

 

Strutter Chords & Tabs

Kiss Chords & Tabs

Version: 1 Type: Bass Tab 0 ratings
1 star 2 stars 3 stars 4 stars 5 stars
comments

Strutter Bass Tab

STRUTTER- KISS
 
This song has a great bass line that Gene Simmons partially 
“borrowed” from Noel Reddings bassline to the Jimi Hendrix 
song “Fire”

Verse
---------------------------------2----2-----2----
-----------------------------4-----4----4------4
-2-2------------2-3-4-5-----------------------
-------0-1-2-3---------------------------------
[ Tab from: http://www.guitartabs.cc/tabs/k/kiss/strutter_btab.html ]
Verse (variation riff)
-----------------------------------------------------
-----------------------------------------------------
-2-2-------------2-3-4-5-5-4-2-0-------------
-------0-1-2-3-----------------------5-5-4-2-0

Chorus
-----------------------------------
-----------------------------------
-2-22-2---------2-22-2-------
----------3-33-3---------3-33

Interlude
-------------------------------------------
-------------------------------------------
--------------------------5-77-5---------
-5-77-5-77-5-77-7------------7-5-4

-------------------------------------------
------------------------------------5------
--------------------------5-77-5----7---
-5-77-5-77-5-77-7------------------7

for the guitar solo you play the interlude
thats all you really need to know for this song
Comments