Kiss - Shock Me Chords & Tabs

 

Shock Me Chords & Tabs

Kiss Chords & Tabs

Version: 2 Type: Tab 0 ratings
1 star 2 stars 3 stars 4 stars 5 stars
comments

Shock Me Tab

   
Tablature for Kiss's Shock me






#----------------------------------PLEASE NOTE---------------------------------#
#This file is the author's own work and represents their interpretation of the #
#song. You may only use this file for private study, scholarship, or research. #
#------------------------------------------------------------------------------#

SHOCK MEAs recorded by Kiss(From the 1977 Album LOVE GUN)Transcribed by Jeff Hunter(jehalame@bigpond.com.au)Words and Music by Ace FrehleyGtr I (E A D G B E) - 'Ace'
Gtr II (E A D G B E) - 'Ace (Lead)'
Gtr III (E A D G B E) - 'Paul'

 Intro        Intro
  Moderate Rock Q=136
               D/A           D/A         D/A               D     DsDs4
 4/4
  Gtrs I, III
  W            E E E E +E  E E E   +E  E E E Q    Q      E E E E E E E E
|----------||--------------------|---------------------|---------3-2-------|
|----------||o-3-2---2-(2)-2-3-2-|-(2)-2-3-2-----------|---3-3-3-3-3-------|
|----------||--2-2---2-(2)-2-2-2-|-(2)-2-2-2-----------|---2-2-2-2-2-------|
|----------||--4-2---2-(2)-2-4-2-|-(2)-2-4-2-----------|---0-0-0-0-0-------|
|----------||o-0-0---0-(0)-0-0-0-|-(0)-0-0-0-----------|-------------------|
|----------||--------------------|-----------2b3--2b3--|---------------2b3-|


                     D/A           D/A
  +E  E Q    Q  Q    E E E E +E  E E E
|------------------|-------------------|
|------------------|-3-2---2-(2)-2-3-2-|
|-----0------2-----|-2-2---2-(2)-2-2-2-|
|------------2-----|-4-2---2-(2)-2-4-2-|
|------------0-----|-0-0---0-(0)-0-0-0-|
|-(2)---2b3--------|-------------------|
|
| Gtr II
|  E  E Q    Q  Q    E E E E +E  E E E
|------------------|-------------------|
|------------------|-3-2---2-(2)-2-3-2-|
|-----0------2-----|-2-2---2-(2)-2-2-2-|
|------------2-----|-4-2---2-(2)-2-4-2-|
|------------0-----|-0-0---0-(0)-0-0-0-|
|--2----2b3--------|-------------------|


        D/A               D     DsDs4
  +E  E E E Q    Q      E E E E E E E E
|---------------------|---------3-2--------|
|-(2)-2-3-2-----------|---3-3-3-3-3--------|
|-(2)-2-2-2-----------|---2-2-2-2-2--------|
|-(2)-2-4-2-----------|---0-0-0-0-0--------|
|-(0)-0-0-0-----------|--------------------|
|-----------2b3--2b3--|---------------2b3--|
|
| +E  E E E Q    Q      E E E E E E E E
|---------------------|---------3-2--------|
|-(2)-2-3-2-----------|---3-3-3-3-3--------|
|-(2)-2-2-2-----------|---2-2-2-2-2--------|
|-(2)-2-4-2-----------|---0-0-0-0-0--------|
|-(0)-0-0-0-----------|--------------------|
|-----------2b3--2b3--|---------------2b3--|


             A                                    D     DsDs4
  +E  E Q    Q  E S S   W          +W           E E E E E E E E
|---------------------|----------|------------|---------3-2-------|
|---------------------|----------|------------|---3-3-3-3-3-------|
|-----0------2----2-2-|-2--------|-(2)--------|---2-2-2-2-2-------|
|------------2----2-2-|-2--------|-(2)--------|---0-0-0-0-0-------|
|------------0----0-0-|-0--------|-(0)--------|-------------------|
|-(2)---2b3-----------|----------|------------|---------------2b3-|


             A                                    D     Dsus4
  +E  E Q    Q  E S S   W          +W           E E E E E E E E
|---------------------|----------|------------|---------3-2-------|
|---------------------|----------|------------|---3-3-3-3-3-------|
|-----0------2----2-2-|-2--------|-(2)--------|---2-2-2-2-2-------|
|------------2----2-2-|-2--------|-(2)--------|---0-0-0-0-0-------|
|------------0----0-0-|-0--------|-(0)--------|-------------------|
|-(2)---2b3-----------|----------|------------|---------------2b3-|
|
| Gtr II
|  E  E Q    Q  E S S   W          +W           E E E E E E E E
|---------------------|----------|------------|---------3-2-------|
|---------------------|----------|------------|---3-3-3-3-3-------|
|-----0------2----2-2-|-2--------|-(2)--------|---2-2-2-2-2-------|
|------------2----2-2-|-2--------|-(2)--------|---0-0-0-0-0-------|
|------------0----0-0-|-0--------|-(0)--------|-------------------|
|--2----2b3-----------|----------|------------|---------------2b3-|


                         Bridge
             A            A5B5  A5B5A5B5   E5F5    E5F5 E5D5
  Gtr I
  +E  E Q    Q  S S S S   E E E E E E Q    E  E  E E  E E E E   W
|-----------------------|----------------|--------------------|------|
|-----------------------|----------------|--------------------|------|
|-----0------2----------|----------------|-9-11-11S9S11-9-7-7-|-7----|
|------------2----------|-7S9-9-7-9-7-9--|-9-11-11S9S11-9-7-7-|-7----|
|------------0--0---0---|-7S9-9-7-9-7-9--|-7--9--9S7S=9-7-5-5-|-5----|
|-(2)---2b3-------------|-5S7-7-5-7-5-7--|--------------------|------|
|
|  E  E Q    Q  S S S S   E E E E E E Q    E  E  E E  E E E E   W
|-----------------------|----------------|--------------------|------|
|-----------------------|----------------|--------------------|------|
|-----0------2----------|----------------|-9-11-11S9S11-9-7-7-|-7----|
|------------2----------|-7S9-9-7-9-7-9--|-9-11-11S9S11-9-7-7-|-7----|
|------------0--0---0---|-7S9-9-7-9-7-9--|-7--9--9S7S=9-7-5-5-|-5----|
|--2----2b3-------------|-5S7-7-5-7-5-7--|--------------------|------|


 Chorus
  Csus2G/B    A5         G                    D5
  Gtrs I, III
  H    H      E E H    E E   +H     +Q.   E   E E Q  E E Q
|-----------|------------3-|-(3)----(3)-----|----------------|
|-5----3----|------------3-|-(3)----(3)-----|----------------|
|-5----4----|-2---2------0-|-(0)----(0)-----|-7------7-7-----|
|-5----4----|-2---2------0-|-(0)----(0)-----|-7------7-7-----|
|-3----2----|-0---0------2-|-(2)----(2)-----|-5------5-5-----|
|-----------|------------3-|-(3)----(3)-----|----------------|
|
| H    H      E E H    E E   +H     +Q.   E   E E Q  E E Q
|-----------|------------3-|-(3)----(3)-----|----------------|
|-5----3----|------------3-|-(3)----(3)-----|----------------|
|-5----4----|-2---2------0-|-(0)----(0)-----|-7------7-7-----|
|-5----4----|-2---2------0-|-(0)----(0)-----|-7------7-7-----|
|-3----2----|-0---0------2-|-(2)----(2)-----|-5------5-5-----|
|-----------|------------3-|-(3)----(3)-----|----------------|


         C5       A          G                    D5
  E E Q  E E Q    E E H    E E   +H     +Q.   E   E E Q  E E Q
|---------------|------------3-|-(3)----(3)-----|----------------|
|---------------|------------3-|-(3)----(3)-----|----------------|
|-7------5-5----|-2---2------0-|-(0)----(0)-----|-7------7-7-----|
|-7------5-5----|-2---2------0-|-(0)----(0)-----|-7------7-7-----|
|-5------3-3----|-0---0------2-|-(2)----(2)-----|-5------5-5-----|
|---------------|------------3-|-(3)----(3)-----|----------------|


                                                  1.
         C5       A5         G                    D5
  E E Q  E E Q    E E H    E E   +H     +Q.   E   E E Q  E E E E
|---------------|------------3-|-(3)----(3)-----|-----------------|
|---------------|------------3-|-(3)----(3)-----|-----------------|
|-7------5-5----|-2---2------0-|-(0)----(0)-----|-7------7-7---7--|
|-7------5-5----|-2---2------0-|-(0)----(0)-----|-7------7-7---7--|
|-5------3-3----|-0---0------2-|-(2)----(2)-----|-5------5-5---5--|
|---------------|------------3-|-(3)----(3)-----|-----------------|
|
| Gtrs II, III
| E E Q  E E Q    E E H    E E   +H     +Q.   E   E E Q  E E E E
|---------------|------------3-|-(3)----(3)-----|-----------------|
|---------------|------------3-|-(3)----(3)-----|-----------------|
|-7------5-5----|-2---2------0-|-(0)----(0)-----|-7------7-7---7--|
|-7------5-5----|-2---2------0-|-(0)----(0)-----|-7------7-7---7--|
|-5------3-3----|-0---0------2-|-(2)----(2)-----|-5------5-5---5--|
|---------------|------------3-|-(3)----(3)-----|-----------------|


  1.                         1.
  E5
  E E E E E E E E   E E Q  H
|-----------------|--------------||
|-----------------|-------------o||
|-9-9-9-9-9-9-9-9-|-9------------||
|-9-9-9-9-9-9-9-9-|-9------------||
|-7-7-7-7-7-7-7-7-|-7-----------o||
|-----------------|--------------||
|
| E E E E E E E E   E E Q  H
|-----------------|--------------||
|-----------------|-------------o||
|-9-9-9-9-9-9-9-9-|-9------------||
|-9-9-9-9-9-9-9-9-|-9------------||
|-7-7-7-7-7-7-7-7-|-7-----------o||
|-----------------|--------------||


  2.
                 Gtr II
                      |---3---|  |---3---|  |--3---|  |---3---|
  W                   E  E    E  E  E    E  Q      E  E  E    E
|-----------------|-/12-12---12-12-12---12-12\-------12------12-|
|-----------------|-/12-12---12-12-12---12-12\---/12----12------|
|-----------------|---------------------------------------------|
|-----------------|---------------------------------------------|
|-----------------|---------------------------------------------|
|-----------------|---------------------------------------------|
|
| E E Q  E E E E      E    E     E    E     E  E      E    E
|-----------------|---------------------------------------------|
|-----------------|---------------------------------------------|
|-7------7-7---7S=|===9----9-----9----9-----9--9------9----9----|
|-7------7-7---7S=|===9----9-----9----9-----9--9------9----9----|
|-5------5-5---5S=|===7----7-----7----7-----7--7------7----7----|
|-----------------|---------------------------------------------|


                            2.
   ~~~~~~~~~~~~
                    |--3--|
   H       +E    E  E  E  E
|--------------/12-15-12-15--|
|-15------(15)---------------|
|----------------------------|
|----------------------------|
|----------------------------|
|----------------------------|
|
|  E E Q    H
|----------------------------|
|----------------------------|
|--9-------------------------|
|--9-------------------------|
|--7-------------------------|
|----------------------------|


   E  E E  E  +E  E  E E    +E   E   E  E  Q     Q
|------------------------|----------------------------|
|--3--2----2--(2)-2--3-2-|--(2)--2---3--2-------------|
|--2--2----2--(2)-2--2-2-|--(2)--2---2--2-------------|
|--4--2----2--(2)-2--4-2-|--(2)--2---4--2-------------|
|--0--0----0--(0)-0--0-0-|--(0)--0---0--0-------------|
|------------------------|-----------------2b3---2b3--|
|
| Gtr II
|  Q.      E  +Q     Q      +E   E  +Q     Q     Q
|-15------15-(15)---15---|-(15)-15-(15)---15----15----|
|------------------------|----------------------------|
|------------------------|----------------------------|
|------------------------|----------------------------|
|------------------------|----------------------------|
|------------------------|----------------------------|


  E E   E E E     E   E     E     +E    E  Q         Q     Q
|-----------3-----2-------------|------------------------------|
|---3---3-3-3-----3-------------|------------------------------|
|---2---2-2-2-----2-------------|-------0------------2---------|
|---0---0-0-0-----0-------------|--------------------2---------|
|-------------------------------|--------------------0---------|
|---------------------------2b3-|-(2)------2b3-----------------|
|
|                                                      ~~~~~~~
| E S S E E E    +E   E    +E      E   +E  S   S S S S E. +Q
|-------------------------------|------------------------------|
|-------------------------------|------------------------------|
|-------5-7-7b9==(7)r-7b9==(7)r-|--7b9r(7)-5h==7p5---5h6--(6)--|
|---5h7-------------------------|------------------7-----------|
|-------------------------------|------------------------------|
|-------------------------------|------------------------------|


  A                    D/A               D/AA
  E E     E E +E     E E E       +E    E  E  E   Q       Q
|------------------------------|----------------------------------|
|-3-2-------2-(2)----2-3-2-----|-(2)---2--3--2--------------------|
|-2-2-------2-(2)----2-2-2-----|-(2)---2--2--2--------------------|
|-4-2-------2-(2)----2-4-2-----|-(2)---2--4--2--------------------|
|-0-0-------0-(0)----0-0-0-----|-(0)---0--0--0--------------------|
|------------------------------|-----------------2b3-----2b3------|
|
|   |-3-|      |-3-|     |-3-|
| E S S S E E  S S S E E S S S    S  S E  E  S S E    E  S   S  E
|---8p7p5----------------8p7p5-|----------------------------------|
|---------8----8p7p5-----------|----------------------------------|
|--------------------7---------|---------------------16-----------|
|------------------------------|-17------16-------------17-----16-|
|------------------------------|------------17--------------------|
|------------------------------|----------------------------------|

[ Tab from: http://www.guitartabs.cc/tabs/k/kiss/shock_me_tab_ver_2.html ]
       D          Dsus4D
   E    E  E    E  E    E  E  E
|------------------3----2---------|
|-------3--3----3--3----3---------|
|-------2--2----2--2----2---------|
|-------0--0----0--0----0---------|
|---------------------------------|
|-----------------------------2b3-|
|
|  S S  E  S S  E  S S  E  E  E
|---------------------------------|
|---------------------------------|
|------16-------------------------|
|---------17---16------16---------|
|-17--------------17------17-19---|
|---------------------------------|


                             A
  +E      E     Q             Q        Q
|-------------------------------------------|
|-------------------------------------------|
|---------0-------------------2-------------|
|-----------------------------2-------------|
|-----------------------------0-------------|
|-(2)-----------2b3-------------------------|
|
|  S   S  S  S  S    S  S  S  E  S  S  E  E
|-------------------------------------------|
|-------------------------------------------|
|-------------------------------------------|
|-------------------------------------------|
|-17--17-15----17------15-17-15----------19-|
|-----------17------17----------17-15-17----|


  D/A   A                   D/AA               D/A  A
   E  E     E E +E     E     E E   +E     E    E    E  Q        Q
|--------------------------------|--------------------------------------------|
|--3--2-------2-(2)----2-----3-2-|-(2)----2----3----2-------------------------|
|--2--2-------2-(2)----2-----2-2-|-(2)----2----2----2-------------------------|
|--4--2-------2-(2)----2-----4-2-|-(2)----2----4----2-------------------------|
|--0--0-------0-(0)----0-----0-0-|-(0)----0----0----0-------------------------|
|--------------------------------|---------------------2b3------2b3-----------|
|
|  E  S  S  Q    S   S S  S  Q      S   S S  S S  S E  S    E.  S   S  S  S
|---------------------------13---|-12--11---10-8-10-8---------------9-12-10---|
|----------18---17--16---15------|--------------------10---10-----------------|
|--------------------------------|-----------------------------11-------------|
|-19----19-----------------------|--------------------------------------------|
|----21--------------------------|--------------------------------------------|
|--------------------------------|--------------------------------------------|


          D                 Dsus4 D
    E      E     E     E     E     E     E     E
|----------------------------3-----2------------------|
|----------3-----3-----3-----3-----3------------------|
|----------2-----2-----2-----2-----2------------------|
|----------0-----0-----0-----0-----0------------------|
|-----------------------------------------------------|
|----------------------------------------------2b3----|
|
|  +S   S  S  S  S  S  S  S  S  S  S  S  S  S  S    S
|-(10)-12-17-15-------------17-15-------------17---15-|
|---------------17-15-17-17-------17-15-17-17---------|
|-----------------------------------------------------|
|-----------------------------------------------------|
|-----------------------------------------------------|
|-----------------------------------------------------|


                             A         D/AA           D/AA
  +E      E     Q             Q   Q     E E E E +E  E  E  E
|------------------------------------|----------------------|
|------------------------------------|--3-2---2-(2)-2--3--2-|
|---------0-------------------2------|--2-2---2-(2)-2--2--2-|
|-----------------------------2------|--4-2---2-(2)-2--4--2-|
|-----------------------------0------|--0-0---0-(0)-0--0--0-|
|-(2)-----------2b3------------------|----------------------|
|
|  S   S  S  S  S    S  S  S  Q   Q     H        Q     E  E
|--------15----15------------20--20--|-20-------20----20----|
|-17--15----17------17-15-17---------|-------------------22-|
|------------------------------------|----------------------|
|------------------------------------|----------------------|
|------------------------------------|----------------------|
|------------------------------------|----------------------|


         D/AA                       D              Dsus4 D
  +E   E  E  E  Q       Q         E  E  E     E     E     E     E     E
|------------------------------|--------------------3-----2------------------|
|-(2)--2--3--2-----------------|-----3--3-----3-----3-----3------------------|
|-(2)--2--2--2-----------------|-----2--2-----2-----2-----2------------------|
|-(2)--2--4--2-----------------|-----0--0-----0-----0-----0------------------|
|-(0)--0--0--0-----------------|---------------------------------------------|
|---------------2b3-----2b3----|--------------------------------------2b3----|
|
|  E   E  E  E  E    E  E    E    E  E  S  S  S  S  S  S  S  S  S  S  S    S
|-20--18--------------------17-|----17-20------------------------------------|
|--------20-22------22------17-|-15-17----22-24-22-20----19-17-15-13------15-|
|-------------------21-19------|----------------------21-------------14------|
|--------------24--------------|---------------------------------------------|
|------------------------------|---------------------------------------------|
|------------------------------|---------------------------------------------|


                          A
  +E      E     Q          Q  Q
|---------------------------------|
|---------------------------------|
|---------0----------------2------|
|--------------------------2------|
|--------------------------0------|
|-(2)-----------2b3---------------|
|
|  S   S  S  S  S    S  E  Q  Q
|---------------------------------|
|-----13--------------------------|
|-14-----14-12------------12------|
|--------------14---14-14---------|
|---------------------------------|
|---------------------------------|


  B5   A5B5A5B5     E5 F5    E5 F5 E5       B5
   E E E E E E Q     E  E  E  E  E  E +E    E
|-----------------|---------------------------|
|-----------------|---------------------------|
|-----------------|--9S11-11S=9S11--9-(9)-----|
|--9-9-7S9S7-9----|--9S11-11S=9S11--9-(9)---9-|
|--9-9-7S9S7-9----|--7S=9--9S=7S=9--7-(7)---9-|
|--7-7-5S7S5-7----|-------------------------7-|
|
|                                        ~~
|  W                 E  E  E  E  E  E  S E.
|-----------------|---------------------------|
|-10--------------|-10-10-10-10-10-10-10p7----|
|-----------------|---------------------------|
|-----------------|---------------------------|
|-----------------|---------------------------|
|-----------------|---------------------------|


        A5    B5      A5    B5
  E     E      E      E      E      E      E      E
|--------------------------------------------------------|
|--------------------------------------------------------|
|--------------------------------------------------------|
|-7S====9------9------7------9------7------9-------------|
|-7S====9------9------7------9------7------9-------------|
|-5S====7------7------5------7------5------7-------------|
|
| E.      +S  +E.       +S  +E.       +S  +E.       +S
|--------------------------------------------------------|
|--------------------------------------------------------|
|-9b11====(9)r(9)b11====(9)r(9)b11====(9)r(9)b11====(9)r=|
|--------------------------------------------------------|
|--------------------------------------------------------|
|--------------------------------------------------------|


  B5      A5  B5  A5  B5       E5F5      E5 F5   E5       B5
  E   E   E   E   E   E   Q    E  E    E  E   E  E +E      E
|----------------------------|-------------------------------|
|----------------------------|-------------------------------|
|----------------------------|-9S11---11S=9S=11--9-(9)-------|
|-9---9---7S==9S==7---9------|-9S11---11S=9S=11--9-(9)-----9-|
|-9---9---7S==9S==7---9------|-7S=9----9S=7S==9--7-(7)-----9-|
|-7---7---5S==7S==5---7------|-----------------------------7-|
|
| S S S S S S S S S S S S Q    E  S S  E  E  +E  E  S   S  E
|----------------------------|------7-10-10-(10)-8-----------|
|----------------------------|----7----------------10--12-10-|
|-9---9---9---9---9---9---9--|-9-----------------------------|
|----------------------------|-------------------------------|
|----------------------------|-------------------------------|
|----------------------------|-------------------------------|


       A5B5        A5      B5
    E  E E   E E   E   E   E
|--------------------------------|
|--------------------------------|
|--------------------------------|
|---7S=9-9---7-9---7---9---------|
|---7S=9-9---7-9---7---9---------|
|---5S=7-7---5-7---5---7---------|
|
|  +E  E S S E S S S S S S S S
|--------------------------------|
|-(10)-8---7-6-----------5-3-----|
|--------9-----7---9---7---------|
|----------------9---9-----------|
|--------------------------------|
|--------------------------------|


  B5      A5B5  A5     B5
  E   E   E E    E     E  Q
|-----------------------------------|
|-----------------------------------|
|-----------------------------------|
|-9---9---7S9S===7-----9------------|
|-9---9---7S9S===7-----9------------|
|-7---7---5S7S===5-----7------------|
|
| S S S S E S S  S  E.    S S  S  S
|-2-4-5-7---------------------------|
|-----------7-9-10-12-------9-10-12-|
|------------------------11---------|
|-----------------------------------|
|-----------------------------------|
|-----------------------------------|


  E5        F5              EF5 B5        A5B5  A5
   E    E    E     E  E E   +E  E     E E E E E E E E
|-----------------------------------|------------------|
|-----------------------------------|------------------|
|--9S==11---11S====9S11-9---(9)-----|------------------|
|--9S==11---11S====9S11-9---(9)-7S==|=7S9-9-7-9-7-9----|
|--7S===9----9S====7S=9-7---(7)-7S==|=7S9-9-7-9-7-9----|
|-------------------------------5S==|=5S7-7-5-7-5-7----|
|
|  S S  S S  S  S  E  E S S  E  S S   W
|-----------------------------------|------------------|
|-10-9--7-9-10-12-10--8-------------|------------------|
|-----------------------9----7------|-9----------------|
|-------------------------------9---|------------------|
|-----------------------------------|------------------|
|-----------------------------------|------------------|


  C5               A          G                    A            G
  H    E E E   E   E E H    E E   +H     +Q.   E    E  E H    E E
|----------------|------------3-|-(3)----(3)-----|--------------3-|
|-5----3---------|------------3-|-(3)----(3)-----|--------------3-|
|-5----4---------|-2---2------0-|-(0)----(0)-----|--2----2------0-|
|-5----4---------|-2---2------0-|-(0)----(0)-----|--2----2------0-|
|-3----2---------|-0---0------0-|-(0)----(0)-----|--0----0------2-|
|--------0-3---4-|------------3-|-(3)----(3)-----|--------------3-|
|
| H    Q   S S E   W              +W               +W
|----------------|--------------|----------------|----------------|
|----------------|--------------|----------------|----------------|
|-9----9---9---9-|--------------|----------------|----------------|
|----------------|-7------------|-(7)------------|-(7)------------|
|----------------|--------------|----------------|----------------|
|----------------|--------------|----------------|----------------|


                 A              G                  A
    H    +Q.   E   E E Q  E E Q    E E Q  E E Q    E E H    E E  6x
||--3----(3)-----|-2------2-2----|-2-------------|------------3--||
||o-3----(3)-----|-3------3-3----|-3-------------|------------3-o||
||--0----(0)-----|-2------2-2----|-2------5-5----|-2---2------0--||
||--0----(0)-----|-0------0-0----|-0------5-5----|-2---2------0--||
||o-0----(0)-----|---------------|--------3-3----|-0---0------2-o||
||--3----(3)-----|---------------|---------------|------------3--||
|
|   H    +Q.   E   E E Q  E E Q    E E Q  E E Q    E E H    E E  6x
||--3----(3)-----|-2------2-2----|-2-------------|------------3--||
||o-3----(3)-----|-3------3-3----|-3-------------|------------3-o||
||--0----(0)-----|-2------2-2----|-2------5-5----|-2---2------0--||
||--0----(0)-----|-0------0-0----|-0------5-5----|-2---2------0--||
||o-0----(0)-----|---------------|--------3-3----|-0---0------2-o||
||--3----(3)-----|---------------|---------------|------------3--||




Duration Legend
---------------
W - whole; H - half; Q - quarter; E - 8th; S - 16th; T - 32nd; X - 64th; a - acciaccatura
+ - note tied to previous; . - note dotted; .. - note double dotted
Uncapitalized letters represent notes that are staccato (1/2 duration)
Irregular groupings are notated above the duration line
Duration letters will always appear directly above the note/fret number it represents the
duration for.  Duration letters with no fret number below them represent rests.  Multi-
bar rests are notated in the form Wxn, where n is the number of bars to rest for.  Low
melody durations appear below the staff

Tablature Legend
----------------
 h   - hammer-on
 p   - pull-off
 b   - bend
 pb  - pre-bend
 r   - bend release (if no number after the r, then release immediately)
 /\  - slide into or out of (from/to "nowhere")
 s   - legato slide
 S   - shift slide
<n> - natural harmonic
[n]  - artificial harmonic
n(n) - tapped harmonic
 ~   - vibrato
 tr  - trill
 T   - tap
 TP  - trem. picking
 PM  - palm muting
\n/  - tremolo bar dip; n = amount to dip
 \n  - tremolo bar down
 n/  - tremolo bar up
/n\  - tremolo bar inverted dip
 =   - hold bend; also acts as connecting device for hammers/pulls
 <> - volume swell (louder/softer)
 x   - on rhythm slash represents muted slash
 o   - on rhythm slash represents single note slash

Misc Legend
-----------
 |  - bar
||  - double bar
||o - repeat start
o|| - repeat end
*|  - double bar (ending)
 :  - bar (freetime)
 $  - Segno
 &  - Coda
Tempo markers - <E/E./Q/Q./H/H.> = BPM(8/16=s8/s16), where s8 = swing 8ths, s16 = swing 16ths

** Generated using Power Tab Editor by Brad Larsen:   The Official Power Tab Web Site


Comments