Kiss - Rock Bottom Chords & Tabs

 

Rock Bottom Chords & Tabs

Kiss Chords & Tabs

Version: 1 Type: Tab 0 ratings
1 star 2 stars 3 stars 4 stars 5 stars
comments

Rock Bottom Tab

Back ground guitar that may fave not been included



--------------5--------
----6-5h6-------6---5h6
--7--------7-----------
7-----------------7----
-----------------------
-----------------------
[ Tab from: http://www.guitartabs.cc/tabs/k/kiss/rock_bottom_tab.html ]
-----------------------
-----------------------
----5-7--7-------5-7--7
7-5----------7-5-------
-----------------------
-----------------------

-----------------------
3----------8-----------
-----------------------
6----------5-----------
-----------------------
-----------------------

Thats it.
for the main guitar refer to the other submitted tab. on guitartabs.cc
Comments