Kiss - Rock And Roll All Nite Chords & Tabs

 

Rock And Roll All Nite Chords & Tabs

Kiss Chords & Tabs

Version: 6 Type: Tab 0 ratings
1 star 2 stars 3 stars 4 stars 5 stars
comments

Rock And Roll All Nite Tab

   
ROCK AND ROLL ALL NITE by: KISS

Tab by: Aaron Meredith

Tuning:1/2 step down  (Eb-Ab-Db-Gb-Bb-eb)

~ = let ring
h = hammer-on
\ = slide down


This is the tab from Rock and Roll all night from the Album 
Dressed to Kill by: Kiss. If you listen to it on headphones
You can hear cuts from where they punched the guitars in during
Recording in the studio. Check it out. Its pretty funny.


Guitar 1 = Right Speaker
Guitar 2 = Left Speaker


Intro: Guitar 1 
e|-----------------------------|
B|---8~---8~---7~---8~--8-7----|
G|---7~---7~---7~---7~--7-7----|
D|---7~---7~---7~---7~--7-7----|
A|---5~---5~---5~---5~--5-5----|
E|-----------------------------|


Intro: Guitar 2 
e|------------------------------|
B|--7h8~--7h8~--7~~~--8~--8-7---|
G|--7~~~--7~~~--7~~~--7~--7-7---|
D|--7h9~--7h9~--7~~~--9~--9-7---|
A|------------------------------|
E|------------------------------|

Intro cont: Guitar 1
e|---------------------------------|
B|---------------------------------|
G|--9~------9~-----9~------9~------|
D|--7~------9~-----7~------9~------|
A|--0~------7~-----0~------7~------|
E|---------------------------------|


Intro cont: Guitar 2
e|-------------------------------------------------|
B|-------9--9-10-9-10-9--------9--9-10-9-10-9------|
G|-------9--9--9-9--9-9--------9--9--9-9--9-9------|
D|-------9--9-11-9-11-9--------9--9-11-9-11-9------|
A|--7~----------------------7~---------------------|
E|--5~----------------------5~---------------------|
Verse: Guitar 1
e|-------------------------------------------|
B|-------------------------------------------|
G|--9~------9~-----9~------9~-----7~-----9~--|
D|--7~------9~-----7~------9~-----7~-----9~--|
A|--0~------7~-----0~------7~-----5~-----7~--|
E|-------------------------------------------|

[ Tab from: http://www.guitartabs.cc/tabs/k/kiss/rock_and_roll_all_nite_tab_ver_6.html ]
Verse: Guitar 2
e|-------------------------------------------------|
B|-------9--9-10-9-10-9--------9--9-10-9-10-9------|
G|-------9--9--9-9--9-9--------9--9--9-9--9-9------|
D|-------9--9-11-9-11-9--------9--9-11-9-11-9------|
A|--7~----------------------7~---------------------|
E|--5~----------------------5~---------------------|

e|---------------------------------------------------|
B|----7--7--8--7--8--7------9--9-10-9-10-9-----------|
G|----7--7--7--7--7--7------9--9--9-9--9-9-----------|
D|----7--7--9--7--9--7------9--9-11-9-11-9-----------|
A|---------------------------------------------------|
E|---------------------------------------------------|


REPEAT INTRO:

REPEAT VERSE:

REPEAT INTRO:


Pre-chorus: Guitars 1 & 2
e|-------------------------------------------------------|
B|-------------------------------------------------------|
G|-------------------------------------------------------|
D|-10--10-12-10-10-10---12--12-14-12-12-12-14-12-12\-----|
A|--8---8--8--8--8--8---10--10-10-10-10-10-10-10-10\-----|
E|-------------------------------------------------------|


Chorus: Guitars 1 & 2
e|-----------------------------------------------|
B|-----------------------------------------------|
G|--9~-------------------------------------------|x2
D|--7~----7--7-9-7-7-7----9--9-11-9-9-9-11-9-----|
A|--0~----5--5-5-5-5-5----7--7--7-7-7-7--7-7-----|
E|-----------------------------------------------|

Last part:
e|--------------------------------------|
B|--------------------------------------|
G|--9~----------------------------------|
D|--7~----(Chorus:Vocals only x2)-------|
A|--0~----------------------------------|
E|--------------------------------------|


REPEAT INTRO:

REPEAT VERSE:

REPEAT INTRO:

REPEAT VERSE:

REPEAT INTRO:

REPEAT PRE-CHORUS:

REPEAT CHORUS: (w/ last part)

REPEAT CHORUS  & FADE
Comments