Kiss - Rock And Roll All Nite Chords & Tabs

 

Rock And Roll All Nite Chords & Tabs

Kiss Chords & Tabs

Version: 3 Type: Bass Tab 0 ratings
1 star 2 stars 3 stars 4 stars 5 stars
comments

Rock And Roll All Nite Bass Tab

Rock and Roll All Nite
Bass

Intro
G-------------------|
D-7h9-9-7--9-9-9--7-|
A-------------------|
E-------------------|


G-----------------------------------|
D-----------------------------------|
A---------77-5-4--------77-5-4------|
E-55-3-2---------55-3-2-------------|
[ Tab from: http://www.guitartabs.cc/tabs/k/kiss/rock_and_roll_all_nite_btab_ver_3.html ]
"... You keep on shouting, You keep on shouting..."
G----------------------------------------------|
D-------------------------7h9-9-7--9-9-9--7----|
A-5-5--7--8--7-7--9--10------------------------|
E----------------------------------------------|

Chorus *note let the open a hang*

G----------------------------------------------|
D----------------------------------------------|
A--0-5-5--7--8--7-7--9--10---------------------|
E----------------------------------------------|

Alive outro
	     *
G--7-5-7---------------------------------------|
D--------7-5-----------------------------------|
A--------------7--5--3---0---------------------|
E----------------------------------------------|
Comments