Kiss - Nothin To Lose Chords & Tabs

 

Nothin To Lose Chords & Tabs

Kiss Chords & Tabs

Version: 2 Type: Tab 0 ratings
1 star 2 stars 3 stars 4 stars 5 stars
comments

Nothin To Lose Tab

Nothin' To Lose by KISS
From the album KISS
--------------------------------------------------------------------




e:------------------------------------------------------------------3--------|
B:------------------------------------------------------------------3--------|
G:------------------------------------------------------------------0--------|
D:-----------2-----0----2--5--4--2-----------2-----0-----2--5--4--2-0-----9--|
A:------------------------------------------------------------------x-----7--|
E:--3--2--0-----0----0~-------------3--2--0-----0-----0-------------3-----0--|


"Before I  had a baby..."
e:-------------------------------------------------------------------|
B:-------------------------------------------------------------------|
G:------------------------------------------------------9-11-9--9-11-|
D:9--11--9--11-9--9--11--9--11--9---11--9---11----------9-11-9--9-11-|
A:7--7---7--7--7--7--7---7--7---7---7---7---7---9--9-11--------------|
E:------0---------0-0---0--0---0---0---0---0-------------------------|

[ Tab from: http://www.guitartabs.cc/tabs/k/kiss/nothin_to_lose_tab_ver_2.html ]
                      "So baby please don't..."
e:---------------------------------------------------------------------------|
B:---------------------------------------------------------------------------|
G:------------------------------------------------4--------------------------|
D:--5--4--2-------------4~------------------------4--4--6--4--4----4~-----5-5|
A:----------------------4~------------------------2--2--2--2--2----4~-----5-5|
E:-----------3--2--0----2~-----------------------------------------2~-----3-3|


                     "You've got got.."
e:---------------------------------------------------------------------------|
B:---------------------------------------------------------------------------|
G:-------------------2-------------------------------------------------------|
D:-5-5-5-5-5-5-5-----2--2--4--2--2--2--4--2--2--2--4--2--2--2--------9--11-9-|
A:-5-5-5-5-5-5-5-----0--0--0--0--0--0--0--0--0--0--0--0--0--0-----2--7--7--7-|
E:-3-3-3-3-3-3-3-----------------------------------------------3--0----------|

e:---------------------------------------------------------------------------|
B:---------------------------------------------------------------------------|
G:---------------------------------------------------------------------------|
D:-9--9--11-9--9--9--11-9--9--------2--2--4--2--2--2--4--2--2--2--4--2--2----|
A:-7--7--7--7--7--7--7--7--7--------0--0--0--0--0--0--0--0--0--0--0--0--0----|
E:----------------------------0--3-----------------------------------------3-|





e:----------------------------------------------------------------|
B:----------------------------------------------------------------|
G:----------------------------------------------------------------|
D:----9--11-9--9--9--11-9--9--9--11-9--9----------2--2--2-2-3-4---|
A:-2--7--7--7--7--7--7--7--7--7--7--7--7----------0--0--0-0-1-2---|
E:-0----------------------------------------0--3------------------|
Comments