Kiss - Love Theme From Kiss Chords & Tabs

 

Love Theme From Kiss Chords & Tabs

Kiss Chords & Tabs

Version: 1 Type: Tab 0 ratings
1 star 2 stars 3 stars 4 stars 5 stars
comments

Love Theme From Kiss Tab

   
hey guys, this is my first tab on GTU, so I did my favorite band..KISS, if it doesnet sound right
mess with it a bit, if you listen to it, you will get it eventually


Eb Tuning






     Em
Eb|----------------------------------------------------|
Bb|----------------------------------------------------|
Gb|---------6-6h^7---------6-6h^7-7--------------------|
Db|----6h^7-----------6h^7----------6h^7-7-------------|
Ab|----------------------------------------6h^7-7------|
Eb|--0--------------0----------------------------------|



Eb|----------------------------------------------------|
Bb|----------------------------------------------------|
Gb|----------9-9h^11---------9-9h^11-11----------------|
Db|----9h^11-----------9^h11------------9h^11-11-------|
Ab|----------------------------------------------------|
Eb|--0---------------0---------------------------------|

Eb|----------------------------------------------------|
Bb|----------------------------------------------------|
Gb|----------------------------------------------------|
Db|----------------------------------------------------|
Ab|--9^h11-11------------------------------------------|
Eb|----------------------------------------------------|



Eb|--7-7-7------7--------------------------------------|
Bb|--7-7-7------7--------------------------------------|
Gb|--7-7-7------7--------------------------------------|
Db|--6-6-6------6--------------------------------------|
Ab|--7-7-7------7--------------------------------------|
Eb|--0-0-0------0--------------------------------------|



Eb|----------------------------------------------------|
Bb|----------------------------------------------------|
Gb|----------------------------------------------------|
Db|----------------------------------------------------|
Ab|--7-6-2-3-5-6-7-------------------------------------|
Eb|----------------------------------------------------|


[ Tab from: http://www.guitartabs.cc/tabs/k/kiss/love_theme_from_kiss_tab.html ]
Eb|--7-7-7------7--------------------------------------|
Bb|--7-7-7------7--------------------------------------|
Gb|--7-7-7------7--------------------------------------|
Db|--6-6-6------6--------------------------------------|
Ab|--7-7-7------7--------------------------------------|
Eb|--0-0-0------0--------------------------------------|



Eb|----------------------------------------------------|
Bb|----------------------------------------------------|
Gb|----------------------------------------------------|
Db|----------------------------------------------------|
Ab|--7-6-5-2-0-----------------------------------------|
Eb|------------3-0-------------------------------------|



Eb|----------------------------------------------------|
Bb|----5---------7---5---------------------------------|
Gb|--4---4--7--4---4---7--4----------------------------|
Db|--------------------------5-------------------------|
Ab|----------------------------------------------------|
Eb|----------------------------------------------------|



Eb|----------------------------------------------------|
Bb|----9---------10---9--9-----------------------------|
Gb|--9---9--11-9----9------9--7------------------------|
Db|----------------------------------------------------|
Ab|----------------------------------------------------|
Eb|----------------------------------------------------|



Eb|---------------5*-------------5*--------------------|
Bb|---------------------------5*-----------------------|
Gb|------------5*---------------------------2----------|
Db|-----------------------------------------2----------|
Ab|--3-2--------------3-2------------3-2----0----------|
Eb|------3-0--------------3-0------------3-------------|

Eb|----------------------------------------------------|
Bb|----------------------------------------------------|
Gb|--2b^------------------------------2--4^p2--4p^2----|
Db|------------------------------------------4------4--|
Ab|----------------------------------------------------|
Eb|----------------------------------------------------|
        
Comments