Kiss - Love Gun Chords & Tabs

 

Love Gun Chords & Tabs

Kiss Chords & Tabs

Version: 6 Type: Tab 0 ratings
1 star 2 stars 3 stars 4 stars 5 stars
comments

Love Gun Tab

E|--------------------------------------------|
B|--------------------------------------------|
G|-9999--9999--99999999--9999--9999--99999999-|
D|-9999--9999--99999999--9999--9999--99999999-|
A|-7777--7777--77777777--7777--7777--77777777-|
E|--------------------------------------------|

E|-------------------------------------------------------------------|
B|-------------------------------------------------------------------|
G|-9--12--14--12--7--5--7--7/9--7--9--12--14--12--7--5--7--7/9--7--9-|
D|-9--12--14--12--7--5--7--7/9--7--9--12--14--12--7--5--7--7/9--7--9-|
A|-7--10--12--10--5--3--5--5/7--5--7--10--12--10--5--3--5--5/7--5--7-|
E|-------------------------------------------------------------------|

E|-------------------------------------------------------|
B|-------------------------------------------------------|
G|-12--7--9--12--7--5--7--9--9--12--7--9--12--7--5--7--9-|
D|-12--7--9--12--7--5--7--9--9--12--7--9--12--7--5--7--9-|
A|-10--5--7--10--5--3--5--7--7--10--5--7--10--5--3--5--7-|
E|-------------------------------------------------------|

E|-------------------------------------|
B|-------------------------------------|
G|-5--7--9--5--7--9999--9999--99999999-|
D|-5--7--9--5--7--9999--9999--99999999-|
A|-3--5--7--3--5--7777--7777--77777777-|
E|-------------------------------------|

E|-------------------------------------------------------------------|
B|-------------------------------------------------------------------|
G|-9--12--14--12--7--5--7--7/9--7--9--12--14--12--7--5--7--7/9--7--9-|
D|-9--12--14--12--7--5--7--7/9--7--9--12--14--12--7--5--7--7/9--7--9-|
A|-7--10--12--10--5--3--5--5/7--5--7--10--12--10--5--3--5--5/7--5--7-|
E|-------------------------------------------------------------------|
[ Tab from: http://www.guitartabs.cc/tabs/k/kiss/love_gun_tab_ver_6.html ]
E|-------------------------------------------------------|
B|-------------------------------------------------------|
G|-12--7--9--12--7--5--7--9--9--12--7--9--12--7--5--7--9-|
D|-12--7--9--12--7--5--7--9--9--12--7--9--12--7--5--7--9-|
A|-10--5--7--10--5--3--5--7--7--10--5--7--10--5--3--5--7-|
E|-------------------------------------------------------|

E|-------------------------------------|
B|-------------------------------------|
G|-5--7--9--5--7--9999--9999--99999999-|
D|-5--7--9--5--7--9999--9999--99999999-|
A|-3--5--7--3--5--7777--7777--77777777-|
E|-------------------------------------|


E|----------------------------------------------------------------|
B|----------------------------------------------------------------|
G|-9--12--14--12--7--5--7--7/9--7--9--12--14--12--7--5--7--7/9--7-|
D|-9--12--14--12--7--5--7--7/9--7--9--12--14--12--7--5--7--7/9--7-|
A|-7--10--12--10--5--3--5--5/7--5--7--10--12--10--5--3--5--5/7--5-|
E|----------------------------------------------------------------|

E|--------------------------------------------|
B|--------------------------------------------|
G|-9999--9999--99999999--9999--9999--99999999-|
D|-9999--9999--99999999--9999--9999--99999999-|
A|-7777--7777--77777777--7777--7777--77777777-|
E|--------------------------------------------|

E|--------------------------------------------|
B|--------------------------------------------|
G|-9999--9999--99999999--9999--9999--99999999-|
D|-9999--9999--99999999--9999--9999--99999999-|
A|-7777--7777--77777777--7777--7777--77777777-|
E|--------------------------------------------|

From here on you just repeat the chorus and you stop with these last two bars.  It's 
here that the solo is played but I'm not able to play it so I couldn't fit it in the tab. 
questions or remarks, mail me at: jean_cobbe@gmail.com
Comments