Kiss - Love Gun Chords & Tabs

 

Love Gun Chords & Tabs

Kiss Chords & Tabs

Version: 5 Type: Tab 0 ratings
1 star 2 stars 3 stars 4 stars 5 stars
comments

Love Gun Tab

LOVE GUN
BY
KISS

INTRO: PLAY TWICE

|----------------------------------------||
|----------------------------------------||
|-8-8-8-8---8-8-8-8---8-8-8-8-8-8-8-8-8-8||
|-8-8-8-8---8-8-8-8---8-8-8-8-8-8-8-8-8-8||
|-6-6-6-6---6-6-6-6---6-6-6-6-6-6-6-6-6-6||
|----------------------------------------||

MAIN RIFF:

|--------------------------------------------------------------------|
|--------------------------------------------------------------------|
|-8---11-13-11--------8-6-8---11-13-11---8-6-8---11-6-8---11-6-4-6-8-|
|-8---11-13-11-11-9---8-6-8---11-13-11---8-6-8---11-6-8---11-6-4-6-8-|
|-6---9--11-9--11-9---6-4-6---9--11-9----6-4-6---9--4-6---9--4-2-4-6-|
|--------------9--7--------------------------------------------------|

|----------------------------------------------------------------------------|
|----------------------------------------------------------------------------|
|-8-11-6-8---11-6-4-6-8-----6-8-----6--8-8-8-8--8-8-8-8--8-8-8-8-8-8-8-8-8-8-|
|-8-11-6-8---11-6-4-6-8---6-6-8---6-6--8-8-8-8--8-8-8-8--8-8-8-8-8-8-8-8-8-8-|
|-6-9--4-6---9--4-2-4-6---6-4-6---6-4--6-6-6-6--6-6-6-6--6-6-6-6-6-6-6-6-6-6-|
|-------------------------4-------4------------------------------------------|

SOLO:
[ Tab from: http://www.guitartabs.cc/tabs/k/kiss/love_gun_tab_ver_5.html ]
|---------------------------------------------------------------------------|
|-------------------------------------------------------------11--11-14-11--|
|---------------------------------------------11--11-13-11-13---13----------|
|-----------------------------11--11-13-11-13---13--------------------------|
|-------------11--11-13-11-13---13------------------------------------------|
|-11-14-11-14---14----------------------------------------------------------|

|----11--11-14-11-14-16-14-16-18-16-14-18-16-14-21-18-21^23--|
|-14---14----------------------------------------------------|
|------------------------------------------------------------|
|------------------------------------------------------------|
|------------------------------------------------------------|
|------------------------------------------------------------|
PLAY    |------11-----11-14-11-13-11----11-------------------|
7 TIMES |-----------------------------14---------------------|
        |-13^14--13^14---------------------------------------|
        |----------------------------------------------------|
        |----------------------------------------------------|
        |----------------------------------------------------|

ANY COMENTS ON THIS TAB EMAIL ME AT: Metallica_757@hotmail.com
Comments