Kiss - Love Gun Chords & Tabs

 

Love Gun Chords & Tabs

Kiss Chords & Tabs

Version: 4 Type: Tab 0 ratings
1 star 2 stars 3 stars 4 stars 5 stars
comments

Love Gun Tab

      Kiss
                                   "love gun"
                                (album: love gun)




Colaboration: Daniel Baltra

    Intro

    |-------------------------------------------------||
    |-------------------------------------------------||
    |-8-8-8-8----8-8-8-8-----------8-8-8-8-8-8-8-8----||
    |-8-8-8-8----8-8-8-8-----------8-8-8-8-8-8-8-8----||
    |-6-6-6-6----6-6-6-6-----------6-6-6-6-6-6-6-6----||
    |-------------------------------------------------||


    |-------------------------------||
    |-------------------------------||
    |-8------11-13-11-6-4---6/8-6---||
    |-8------11-13-11-6-4---6/8-6---|| 
    |-6------9--11-9--4-2---4/6-4---||
    |-------------------------------||


    Verse

[ Tab from: http://www.guitartabs.cc/tabs/k/kiss/love_gun_tab_ver_4.html ]
    |--------------------------------------||
    |--------------------------------------||
    |-8----11-6-8-------11-6-4-----4--6--8-||
    |-8----11-6-8-------11-6-4-----4--6--8-||
    |-6----9--4-6-------9--4-2-----2--4--6-||
    |--------------------------------------||





    |----------------------------------------------------------------------||
    |----------------------------------------------------------------------||
    |--4----6----8-------4----6-----8-8-8-8----8-8-8-8-----8-8-8-8-8-8-8-8-||
    |--4----6----8-------4----6-----8-8-8-8----8-8-8-8-----8-8-8-8-8-8-8-8-||
    |--2----4----6-------2----4-----6-6-6-6----6-6-6-6-----6-6-6-6-6-6-6-6-||
    |----------------------------------------------------------------------||

    repeat all and maybe is wrong.
Comments