Kiss - Love Gun Chords & Tabs

 

Love Gun Chords & Tabs

Kiss Chords & Tabs

Version: 3 Type: Bass Tab 0 ratings
1 star 2 stars 3 stars 4 stars 5 stars
comments

Love Gun Bass Tab

   
----------------------------------------------------------------------------
			     Love Gun - KISS
----------------------------------------------------------------------------

Tabbed By : Richie Panic
e-mail: ThePanakAttack@hotmail.com

Pretty straight foward nothing special...this is takin off the Love Gun Album

Tuning: Tuned 1/2 step down all strings

Intro and Chorus and Solo Chord Progression
G|--9-9-9-9--9-9-9-9--9-9-9-9-9-9-9----------------------------------------|
D|----------------------------------------------------5-4------------------|
A|-------------------------------------7-7----7-7----------7-5--3-3---3-3--|
E|------------------------------------------0-----0-----------------3------|

G|-------------------------------------------------------------------------|
D|-----------------------------5-4-----------------------------------------|
A|---3-3-----7-5--7-7---7-7---------7-5--3-3---3-3---3-3---7-5-------------|
E|-3------0-----------0-----0----------------3-----3-----0-----------------|
[ Tab from: http://www.guitartabs.cc/tabs/k/kiss/love_gun_btab_ver_3.html ]
Verse
G|-------------------------------------------------------------------------|
D|---------------------5------------------------5--------------------------|
A|--7-7---7-7---7-7-------5--7-7---7-7---7-7------2-3-2-0--/7-5----7-7-----|
E|------0-----0-----0------------0-----0------0-----------3-----7------0---|

G|-------------------------------------------------------------------------|
D|--------------5----------------------------------------------------------|
A|-7-7---7-7-------5-------------------------------------------------------|
E|-----0-----0-------------------------------------------------------------|

Bridge
G|-------------------------------------------------------------------------|
D|---------------------------------------5---------------------------------|
A|--0-2-3-0/7-5-----5-7-7---7-7---7-7-------5---0-2-3-0/7-5----5-----------|
E|---------------7--------0-----0------0--------------------7--------------|






| /  slide up
| \  slide down
| h  hammer-on
| p  pull-off
| ~  vibrato
| +  harmonic
| x  Mute note
============================================================================
Comments