Kiss - Love Gun Chords & Tabs

 

Love Gun Chords & Tabs

Kiss Chords & Tabs

Version: 1 Type: Bass Tab 0 ratings
1 star 2 stars 3 stars 4 stars 5 stars
comments

Love Gun Bass Tab

   
Song: LOVE GUN
Artist: KISS
Album: LOVE GUN
--------------------
                                                                                    
Transcribed by Emil Ortenmark, kfemil@telia.com 

Tuned down 1/2-step

Comments: Not much to it. If I remember correctly, Paul plays bass on this.
(In some recent interviews he claims to have played bass on the entire 
album.) Just swing those eights and your´re home.

Key:
/    = slide up
\    = slide down
b    = bend (whole step)
b^   = bend (1/2 step)
b^^  = bend (1 1/2 steps)
pb   = pre-bend
r    = release-bend
t    = tap with righthand finger
h    = hammer-on
p    = pull-off
~    = Vibrato
*    = Natural Harmonic
#(#) = Trill
**   = Artificial Harmonic
x    = Dead notes (no pitch)
P.M. = Palm mute (- -> underneath indicates which notes)
(\)  = Dive w\bar
(/)  = Release w\bar
Tp   = Tap w\plectrum


Rhythm Fig. 1a
                                                                 
Gb|-9--9--9--9----9--9--9--9----9--9--9--9--9--9--9\--|
Db|---------------------------------------------------|
Ab|---------------------------------------------------|
Eb|---------------------------------------------------|



Rhythm Fig. 1b
                                                                 
Gb|-9-9-9-9---9-9-9-9---9-9-9-9-9-9-9-9-9-9-----------|
Db|---------------------------------------------------|
Ab|---------------------------------------------------|
Eb|---------------------------------------------------|


[ Tab from: http://www.guitartabs.cc/tabs/k/kiss/love_gun_btab.html ]
Rhythm Fig. 2
                                                
Gb|---------------------------------------------------|
Db|------------------------5----4---------------------|
Ab|--7--7-------7--7-----------------7----5-----------|
Eb|----------7----------7-----------------------------|



Rhythm Fig. 3a
                                                  
Gb|---------------------------------------------------|
Db|---------------------------------------------------|
Ab|--3--3-------3--3-------3--3------/7----5----------|
Eb|----------3----------3----------3------------------|


Rhythm Fig. 3b
                                                  
Gb|---------------------------------------------------|
Db|---------------------------------------------------|
Ab|--3--3-------3--3-------3--3-------5/-7--5---------|
Eb|----------3----------3----------3------------------|


Rhythm Fig. 4a
                                                  
Gb|---------------------------------------------------|
Db|---------------------------------------------------|
Ab|--7--7-------7--7-------7--7-------10\---5---------|
Eb|----------7----------7----------7------------------|


Rhythm Fig. 4b
                                                  
Gb|---------------------------------------------------|
Db|---------------------------------------------------|
Ab|--7--7-------7--7-------7--7-------10\-------------|
Eb|----------7----------7----------7--------3---------|


Rhythm Fig. 5
                                              
Gb|---------------------------------------------------|
Db|---------------------------------------------------|
Ab|--3----2----0--------5h7----5---------5------------|
Eb|-----------------3---------------7-----------------|


Rhythm Fig. 6
                                               
Gb|---------------------------------------------------|
Db|---------------------------------------------------|
Ab|--0----2----3----0---5h7----5---------5------------|
Eb|---------------------------------7-----------------|



Comments