Kiss - Lick It Up Chords & Tabs

 

Lick It Up Chords & Tabs

Kiss Chords & Tabs

Version: 2 Type: Tab

Lick It Up Tab

   
----------------------------------------------------------------------------
			     LICK IT UP - KISS
----------------------------------------------------------------------------
Tabbed by:Eduardo Carrillo
Email:xxxxxxxxxxxxxxxxxxx


Before you try the song out.You should listen to the song in order to see how
many times the open note is actually played.


Tuning:1/2 step down
[ Tab from: http://www.guitartabs.cc/tabs/k/kiss/lick_it_up_tab_ver_2.html ]
e|--------------------------------------------------------------------------|
B|---------------------------------------3-3-2-------3-3-2------------------|
G|---------------------------------------2-2-2-------2-2-2------------------|
D|---------------------------------------4-4-2-------4-4-2------------------|
A|12\-0-0-0-0-0-0-0-0-0-0-0-0-0-0-0-0-0---------0-0-0-------0-0-0-0-0-0-0-0-|
E|--------------------------------------------------------------------------|
   P.M................................          ....       ...............
e|---------------------------------------------------------------------------|
B|---------------3-3-2-------3-3-2-------3-3-let-----3-3-2--------3-3-2------|
G|---------------2-2-2-------2-2-2-------2-2-ring----2-2-2--------2-2-2------|
D|---------------4-4-2-------4-4-2-------4-4---------4-4-2--------4-4-2------|
A|-0-0-0-0-0-0-0-------0-0-0-------0-0-0------------------0-0-0--------0-0-0-|
E|---------------------------------------------------------------------------|
   .............       .....       .....                  .....        .....
e|---------------------------------------------------------------------------|
B|-3-3-let-----------------------------------------3-3-2--------3-3-2--------|
G|-2-2-ring----------------------------------------2-2-2--------2-2-2--------|
D|-4-4--------3-3--3--3--3-/-5-5-5-5---------------4-4-2--------4-4-2--------|
A|------------3-3--3--3--3-/-5-5-5-5-----12\--------------0-0-0--------0-0-0-|
E|------------1-1--1--1--1-/-3-3-3-3-----------------------------------------|
                                                          ....         .....
e|---------------------------------------------------------------------------|
B|--------------------------3-3-2--------3-3-2-------------------------------|
G|--------7-7-7-------------2-2-2--------2-2-2--------------7-7-7------------|
D|-7-7----7-7-7-------------4-4-2--------4-4-2--------7-7---7-7-7------------|
A|-7-7----5-5-5--0-0-0-0-0--------0-0-0--------0-0-0--7-7---5-5-5--0-0-0-0-0-|
E|-5-5------------------------------------------------5-5--------------------|
                 .........        .....        .....               .........
e|--------------------------------------------------------------------------|
B|-3-3-2---------3-3-2----------------------------------3-3-2-------3-3-2---|
G|-2-2-2---------2-2-2---------------7-7-7--------------2-2-2-------2-2-2---|
D|-4-4-2---------4-4-2---------7-7---7-7-7--------------4-4-2-------4-4-2---|
A|--------0-0-0---------0-0-0--7-7---5-5-5---0-0-0-0-0---------0-0-0--------|
E|-----------------------------5-5------------------------------------------|
          .....         .....                .........         .....
e|--------------------------------------------------------------------------|
B|--------------------------------------------------------------------------|
G|---------------7-7-7-----------------------------------------------5-3----|
D|---------7-7---7-7-7---5-let------------------------------------------5-3-|
A|-0-0-0---7-7---5-5-5---5-ring--12\----0-0-0-0-0-0-0-0-0-0-0-0-0-0---------|
E|---------5-5-----------3--------------------------------------------------|
   .....                                ...........................
e|--------------------------------------------------------------------------|
B|--------------------3-3-2--------3-3-2---------------------------3-3-2----|
G|--------------------2-2-2--------2-2-2---------------------------2-2-2----|
D|--------------------4-4-2--------4-4-2---------------------------4-4-2----|
A|-0-0-0-0-0-0-0-0-0---------0-0-0--------0-0-0-0-0-0-0-0-0-0-0-0-----------|
E|--------------------------------------------------------------------------|
   .................         .....        .......................
e|--------------------------------------------------------------------------|
B|--------3-3-2---------3-3-let------3-3-2---------3-3-2---------3-3-let----|
G|--------2-2-2---------2-2-ring-----2-2-2---------2-2-2---------2-2-ring---|
D|--------4-4-2---------4-4----------4-4-2---------4-4-2---------4-4--------|
A|-0-0-0---------0-0-0---------------------0-0-0---------0-0-0--------------|
E|--------------------------------------------------------------------------|
   .....         .....                     .....         .....
e|--------------------------------------------------------------------------|
B|--------------------------------3-3-2--------3-3-2------------------------|
G|--------------------------------2-2-2--------2-2-2----------------7-7-7---|
D|-3-3--3--3--3-/-5-5-5-5---------4-4-2--------4-4-2-----------7-7--7-7-7---|
A|-3-3--3--3--3-/-3-3-3-3-----12\--------0-0-0--------0-0-0----7-7--5-5-5---|
E|-1-1--1--1--1-/-3-3-3-3--------------------------------------5-5----------|
                                         .....        .....
e|--------------------------------------------------------------------------|
B|--------------3-3-2---------3-3-2-----------------------------------3-3-2-|
G|--------------2-2-2---------2-2-2--------------7-7-7----------------2-2-2-|
D|--------------4-4-2---------4-4-2---------7-7--7-7-7---4b-2---------4-4-2-|
A|-0-0-0-0-0-0---------0-0-0---------0-0-0--7-7--5-5-5---4b-2--3b-2---------|
E|------------------------------------------5-5---------------------0-------|
   ...........         .....         .....
e|--------------------------------------------------------------------------|
B|-------3-3-2------------------------------3-3-2---------3-3-2-------------|
G|-------2-2-2-------7-7-7------------------2-2-2---------2-2-2-------------|
D|-------4-4-2--7-7--7-7-7---4b--2----------4-4-2---------4-4-2--------7-7--|
A|-0-0-0--------7-7--5-5-5---4b--2--3b-2-----------0-0-0--------0-0-0--7-7--|
E|--------------5-5----------------------0-----------------------------5-5--|
   .....                                           .....        .....
e|--------------------------------------------------------------------------|
B|--------------------------------------------------------------------------|
G|-7-7-7-let----------------------------------------------------------------|
D|-7-7-7-ring---------------------------------------------------------------|
A|-5-5-5------12\5--5-5--5--5-5--5-------------5--5-5--5--5-5--5------------|
E|---------------2--3-3--2--3-3--5--0-0-0-0-0--2--3-3--2--3-3--5-0-0-0-0-0--|
                                    .........                    .........
e|--------------------------------------------------------------2-----------|
B|---------------------------------------------------------3------3---2-----|
G|-------------------------------------------------------4---4------0-2-----|
D|-----------------------------------------------------5--------------0-----|
A|-5--5-5--5--5-5--5--------------5--5-5--5--5-5--5---------------------0-0-|
E|-2--3-3--2--3-3--5-0-0-0-0-0-0--2--3-3--2--3-3--5-------------------------|
                     ...........                                        ....
e|-----------------2--------------------------2--------------------------2---|
B|-------------------3--------------------------3--------------------------3-|
G|-------------3-------0--2---------------3-------0-2------------------3-----|
D|-----------4---4--------2-------------4---4-------2----------------4-------|
A|-0-0-0---5--------------0--0-0-0-0--5-------------0--0-0-0-0-0---5---------|
E|---------------------------------------------------------------------------|
   .....                     .......                   .........
e|--------------------------------------------------------------------------|
B|---------------------------------------------------------3-3-2--------3-3-|
G|-0-2--2--2--2--2--2--2--2-2-2-2-2-2-2-2-2-2-2-2-2--------2-2-2--------2-2-|
D|---2--2--2--2--2--2--2--2-2-2-2-2-2-2-2-2-2-2-2-2--------4-4-2--------4-4-|
A|---0--0--0--0--0--0--0--0-0-0-0-0-0-0-0-0-0-0-0-0---12\--------0-0-0------|
E|--------------------------------------------------------------------------|
                                                                 .....
e|---------------------------------------------------------------------------|
B|-2----------------------------------3-3-2--------3-3-2---------------------|
G|-2-----------------7-7--------------2-2-2--------2-2-2--------7-7-----4b-2-|
D|-2------------7-7--7-7--5-----------4-4-2--------4-4-2---7-7--7-7--5--4b-2-|
A|----0-0-0-0---7-7--5-5--5--0-0-0-0---------0-0-0---------7-7--5-5--5-------|
E|--------------5-5-------3--------------------------------5-5-------3-------|
      .......                .......         .....
e|--------------------------------------------------------------------------|
B|--------------------------------------------------------------------------|
G|--------------------------------------------------------------------------|
D|-3-2----------------------------------------------------------------------|
A|------0-------------------------------------------------------------------|
E|--------------------------------------------------------------------------|

The rest of the song is just reapeted notes and riffs and whatever all the way until it fades out.

Any Q's......if so e-mail me at phatguitarist91@ yahoo.com

My First submitted tab so please rate.

If you think it sucks,than it sucks.


| /  slide up
| \  slide down
| h  hammer-on
| p  pull-off
| ~  vibrato
| +  harmonic
| x  Mute note
============================================================================