Kiss - King Of The Night Time World Chords & Tabs

 

King Of The Night Time World Chords & Tabs

Kiss Chords & Tabs

Version: 1 Type: Tab 0 ratings
1 star 2 stars 3 stars 4 stars 5 stars
comments

King Of The Night Time World Tab

King Of The Nighttime World by KISS
From the album Destroyer
Transcriber: Unknown
--------------------------------------------------------------------


                                                              4x       "It's
e:---------------------------------------------------------------------------|
B:---------------------------------------------------------------------------|
G:--5b(7)~~~~~~~--5-5--7~-----5-5--7~-----5-5--7--7-9-7----12----12/7----5/7-|
D:----------------5-5--7~-----5-5--7~-----5-5--7--7-7-7----12----12/7----5/7-|
A:----------------3-3--5~-----3-3--5~-------------------------10-10----------|
E:---------------------------------------------------------------------------|




  so sad..."                                                     repeat
e:--------------------------------------------------------------------------|
B:--------------------------------------------------------5/6-6-6-5--5/6-5--|
G:7--9-9-9-7-----10/12-12--14-14-14-12----3/5-5--7-7-7-5--5/5-5-5-5--5/5-5--|
D:7--7-7-7-7-----10/12-12--12-12-12-12----3/5-5--5-5-5-5--5/7-7-7-5--5/7-5--|
A:--------------------------------------------------------------------------|
E:--------------------------------------------------------------------------|


                                                               

  "I'm the king.."
e:------------------------------------------------------------|
B:---------------8-------------6--------------8------------6--|
G:--5-5--7-------7-------------5----5-5--7----7------------5--|
D:--5-5--7-------5----7-6-5----3----5-5--7----5----7-6-5---3--|
A:--3-3--5------------5-4-3---------3-3--5---------5-4-3------|
E:------------------------------------------------------------|



[ Tab from: http://www.guitartabs.cc/tabs/k/kiss/king_of_the_night_time_world_tab.html ]
     solo
e:---------------------------------------------------------------------------|
B:--15-15-15---12/14----12----10~---------15-15-15------------------------15-|
G:--14-14-14---12/14----12----10~---------14-14-14-----14---14--16---16---14-|
D:--------------------12----12-----14-12------------12-12-x-12--12-x-12------|
A:---------------------------------------------------------------------------|
E:---------------------------------------------------------------------------|





e:--------------------------------------10-----------------------------------|
B:15-15--12/14----12----10------------10-------------------12-10-------------|
G:14-14--12/14----12----10---------12b-----12b/12-10/12/10-12-10---12b-10/12/|
D:--------------12----12----14-12--------------------------------------------|
A:---------------------------------------------------------------------------|
E:---------------------------------------------------------------------------|





e:-----------15-15/14----------------------------15b/15-13~---15-15-15-15/14-|
B:-------------------15---------------15b/15-13~----------------------------1|
G:10-------------------14--14b/14-12~----------------------------------------|
D:---12-14-------------------------------------------------------------------|
A:---------------------------------------------------------------------------|
E:---------------------------------------------------------------------------|


                                                            


e:---------------------------15b/15-13~--15b/15-13--20-20b~~|
B:5---------------15b/15-13~--------------------------------|
G:-14--14b/14-12~-------------------------------------------|
D:----------------------------------------------------------|
A:----------------------------------------------------------|
E:----------------------------------------------------------|
Comments