Kiss - I Want You Chords & Tabs

 

I Want You Chords & Tabs

Kiss Chords & Tabs

Version: 1 Type: Tab 0 ratings
1 star 2 stars 3 stars 4 stars 5 stars
comments

I Want You Tab

I Want You by KISS
From the album Rock And Roll Over
--------------------------------------------------------------------

intro  "In the morning..."
e:--------0--------0--------0------------------0--------0--------0-----------|
B:--------0--------0--------0------------------0--------0--------0-----------|
G:------5--------7--------9---9--------------5--------7--------9---9---------|
D:----5--------7--------9-------9---9------5--------7--------9-------9---9---|
A:--3--------5--------7-----------7------3--------5--------7-----------7-----|
E:---------------------------------------------------------------------------|
"is...."
e:-------0--------0--------0-------------------------------------------------|
B:-------0--------0--------0-------------------------------------------------|
G:-----5--------7--------9---9--------------5-5-5-5-5-5-----7-7-7-7-7-7------|
D:---5--------7--------9-------9---9--------5-5-5-5-5-5-----7-7-7-7-7-7------|
A:-3--------5--------7-----------7----------3-3-3-3-3-3-----5-5-5-5-5-5------|
E:---------------------------------------------------------------------------|
etc.            etc."I want you.."                                      D              A
e:---------------------------------------------------------------------------|
B:---------------------------------------------------------------------------|
G:-------------------------5~------------------------------------------------|
D:-----------9-------------5~-----------9-----5/7/5/7/5/7/5---0/2/0/2/0/2/0--|
A:---2-------7------------------2-------7------------------------------------|
E:---0---0---0---0-0-5-6-7------0---0---0------------------------------------|
rhythm 1verses
e:---------------------------------------------------------------------------|
B:---------------------------------------------------------------------------|
G:-----------------------5~--------------------------------------2-----------|
D:---------9-------------5~----------9----2--0-------------------2-----------|
A:-2-------7-----------------2-------7----------2--0-----4---5---0-----------|
E:-0---0---0---0-0-5-6-7-----0---0---0----------------3--2---3--------0-0-0-0|
[ Tab from: http://www.guitartabs.cc/tabs/k/kiss/i_want_you_tab.html ]
e:--12-----------12----------------------12-----------12---------------------|
B:--15b(17)------15b(17)-----------------15b(17)------15b(17)----------------|
G:-------------------------2--------------------------------------2---5---4--|
D:--9------------9---------2-------------9------------9-----------2---5---4--|
A:--7------------7-----5---0-------------7------------7-------5---0---3---2--|
E:--0---0-0-0-0--0-----3--------0-0-0-0--0---0-0-0-0--0-------3--------------|
to chorus(repeat)
e:-----------------------------|
B:-----------------------------|
G:-2-------4-4-4-4-4-4-4-4-4---|
D:-2---5---4-4-4-4-4-4-4-4-4---|
A:-0---5---2-2-2-2-2-2-2-2-2---|
E:-----3-----------------------|
solo
e:-------------------------------------------------15b~----15/14/15/14-------|
B:----------------------------------------------12---------------------12-15-|
G:--14b(16)~----14--12--14--14b/14/12----12b---------------------------------|
D:-----------------------------------14--------------------------------------|
A:---------------------------------------------------------------------------|
E:---------------------------------------------------------------------------|

e:-------------------------------22----22----22----22------------------------|
B:15b~-----------------------------22b---22b---22b---22b/22-20---------------|
G:-------14b/14-12--11-9-7-7/9~~-------------------------------21------------|
D:---------------------------------------------------------------------------|
A:-----------------------------------------------------------------------12-13
E:-----------------------------------------------------------------12-15-----|

e:--------------------------------------------------------------------------|
B:---------------------------------------------------15~~~------------------|
G:----------12-14-12--14b/14/12/14--14-12--14b/14/12------------------------|
D:----12-14-------------------------------------------------14-12-----------|
A:-14-------------------------------------------------------------14-12-----|
E:----------------------------------------------------------------------15-14

e:---------17b~~--17b/17/15--------------------------------------------------|
B:------15-----------------17--17/15/17/15-17b(20)~~~--17b/17/15-------------|
G:---------------------------------------------------------------16/14/12---12
D:------------------------------------------------------------------------14-|
A:---------------------------------------------------------------------------|
E:--15-----------------------------------------------------------------------|
intro        outtro
e:---------|-----------------12---------------------15--17----|
B:---------|-----------------15b--------------------18--20----|
G:---14b~--|------------------------5~------------------------|
D:---------|----------9-------------5~----------9---12--14----|
A:---------|---2------7------------------2------7---10--12----|
E:---------|---0---0--0---0-0-5-6-7------0---0--0-------------|


yet another cool kiss tab that you will need to listen to before playing
i found this tab somwhere as well
enjoy

Mookie
Pencil@Tasmail.com
Comments