Kiss - I Love It Loud Chords & Tabs

 

I Love It Loud Chords & Tabs

Kiss Chords & Tabs

Version: 3 Type: Tab 0 ratings
1 star 2 stars 3 stars 4 stars 5 stars
comments

I Love It Loud Tab

I Love It Loud by KISS
From the album Creatures Of The Night
Transcriber: Unknown
--------------------------------------------------------------------


  drums intro to verse 1    "Stand   up     you dont have to.."  "Get down...
e:---------------------------------------------------------------------------|
B:---------------------------------------------------------------------------|
G:-----------------------------4~----4--4-4-----4~----4--4-4--------4~---4--4|
D:-----------------------------4~----4--4-4-----4~----4--4-4--------4~---4--4|
A:-----------------------------2~----2--2-2-----0~----0--0-0--------2~---2--2|
E:---------------------------------------------------------------------------|




  ."   "..like a hurricane"  "Street boy.."   "..could be tamed.."    "Better
e:-----------------------------------------------------------------------3---|
B:-----------------------------------------------------------------------3---|
G:-4-----4~----4---4-4--------4~---4--4-4--------4~--4---4--4------------0---|
D:-4-----4~----4---4-4--------4~---4--4-4--------4~--4---4--4------------0---|
A:-2-----0~----0---0-0--------2~---2--2-2--------0~--0---0--0------------x---|
E:-----------------------------------------------------------------------3---|
                                                                         repe



   believe it"
e:--2----2---------|
B:--3----3---------|
G:--2----2---2~----|
D:--0----0---2~----|
A:-----------0~----|
E:-----------------|
  at for verses


[ Tab from: http://www.guitartabs.cc/tabs/k/kiss/i_love_it_loud_tab_ver_3.html ]
  chorus "Loud      I wanna hear   it  loud"    "..between the eyes.."    
e:---------------------------------------------------------------------------|
B:---------------------------------------------------------------------------|
G:-------4~-----4--2----------4~----------2-------4--4-4-4--2----4~---------4|
D:-------4~-----4--2----------2~------2---2-------4--4-4-4--2----2~---------4|
A:-------2~-----2--0----------2~------2---0-------2--2-2-2--0----2~---------2|
E:----------------------------0~------0--------------------------0~----------|




  "Loud        I wanna hear   it  loud"   "..no compromise"
e:--------------------------------------------------------3~-----2~----------|
B:--------------------------------------------------------3~-----3~----------|
G:~------4--2---------4~----------2-------4--4-4-4--2-----0~-----2~----4~----|
D:~------4--2---------2~-----2----2-------4--4-4-4--2-----0~-----0~----2~----|
A:~------2--0---------2~-----2----0-------2--2-2-2--0-----x------------2~----|
E:--------------------0~-----0----------------------------3~-----------0~----|




    interlude             "Hey ay ay AY AY..etc"                          
e:|----------------------------------------------2-2---2------------2--------|
B:|----------------------------------------------3-3---3------------3--------|
G:|---------------------2-2----------------------2-2---2------5-----2-----2--|
D:|---------------------2-2----------------------0-0---0------5-----0-----2--|
A:|---------------------0-0-----------------------------------3-----------0--|
E:|-----------------3b-------------------------------------------------------|


         
         
  repeat    
e:------|
B:------|
G:-2-2--|
D:-2-2--|
A:-0-0--|
E:------|




    solo w/verse chords
e:---------------------------------------------------------------------------|
B:----------------------7---------9--------10---------9--------7---------5---|
G:----------------------9b(11)----11b(13)--12b(14)----11b(13)--9b(11)----7b(9|
D:---------------------------------------------------------------------------|
A:---------------------------------------------------------------------------|
E:---------------------------------------------------------------------------|


         
         
         
e:-------|
B:---3---|
G:)--5b(7|
D:-------|
A:-------|
E:-------|
Comments