Kiss - Heavens On Fire Chords & Tabs

 

Heavens On Fire Chords & Tabs

Kiss Chords & Tabs

Version: 3 Type: Tab 0 ratings
1 star 2 stars 3 stars 4 stars 5 stars
comments

Heavens On Fire Tab

   
Tuning:standard
Tabbed by:a crazy teenage rock and roll fan and his little brother (a seven year old 
rock lover)

Artist:Kiss
Song:heavens on fire
Album:animalize
Year:1984

Ok, since nobody else can tab this song at least halfway descent. i figured it out and i 
this one is a lot more accurate. it may not be perfect but it still sounds more like 
song.

Intro.
E|--------------------------|
B|--------------------------|
G|--------------------------|
D|-5-----5-----5----------5-|
A|-5-----5-----5----------5-|
E|-3-----3-----3----------3-|

verse.
E|-------------------------------------------|
B|-------------------------------------------|
G|-------------7---7-----------------7---7---|
D|-5---5-5---5-7---7-5---5---5-5---5-7---7-5-|
A|-5---5-5---5-5---5-5---5---5-5---5-5---5-5-|
E|-3---3-3---3-------3---3---3-3---3-------3-|

pre-chorus
E|-----------------------------------------------------|
B|-----------------------------------------------------|
G|-5-5-5-5-5-5-5-5-5-5-5-5-5-5-5-5------3----------3---|
D|-5-5-5-5-5-5-5-5-5-5-5-5-5-5-5-5-5--5-3-5---5--5-3-5-|
A|-3-3-3-3-3-3-3-3-3-3-3-3-3-3-3-3-5--5-1-5---5--5-1-5-|
E|---------------------------------3--3---3---3--3---3-|

E|-------------------------------------------------------------------------|
B|-------------------------------------------------------------------------|
G|-5-5-5-5-5-5-5-5-5-5-5-5-5-5-5-5-8-8-8-8-8-8-8-8-10-10-10-10-10-10-10-10-|
D|-5-5-5-5-5-5-5-5-5-5-5-5-5-5-5-5-8-8-8-8-8-8-8-8-10-10-10-10-10-10-10-10-|
A|-3-3-3-3-3-3-3-3-3-3-3-3-3-3-3-3-6-6-6-6-6-6-6-6-8--8--8--8--8--8--8--8--|
E|-------------------------------------------------------------------------|
[ Tab from: http://www.guitartabs.cc/tabs/k/kiss/heavens_on_fire_tab_ver_3.html ]
chorus
E|------------------------------------|
B|------------------------------------|
G|-----3--------3-5--5-5-3-5--5-5-3---|
D|-5-5-3-5--5-5-3-5--5-5-3-5--5-5-3-5-|
A|-5-5-1-5--5-5-1-3--3-3-1-3--3-3-1-5-|
E|-3-3---3--3-3---------------------3-|

E|------------------------------------|
B|------------------------------------|
G|-----3--------3-5--5-5-3-5--5-5-3---|
D|-5-5-3-5--5-5-3-5--5-5-3-5--5-5-3-5-|
A|-5-5-1-5--5-5-1-3--3-3-1-3--3-3-1-5-|
E|-3-3---3--3-3---------------------3-|

then reapeat the verse,pre-chorus, and chorus again.

bridge
E|---------------------------------------------------------------|
B|---------------------------------------------------------------|
G|---------------------------------------------------------------|
D|-7---7-7-7-7-7-7-5---5-5-8-5-8-5-------------------------------|
A|-7---7-7-7-7-7-7-5---5-5-8-5-8-5-------------------------------|
E|-5---5-5-5-5-5-5-3---3-3-6-3-6-3-6-5-3-6-5-3-6-5-3-6-5-3-6-5-3-|

E|---------------------------------|
B|---------------------------------|
G|---------------------------------|
D|-7---7-7-7-7-7-7-5---5-5-8-3-8-5-|
A|-7---7-7-7-7-7-7-5---5-5-8-5-8-5-|
E|-5---5-5-5-5-5-5-3---3-3-6-3-6-3-|

guitar solo
for the solo the rythm guitar plays this
E|-------------------------------|
B|-------------------------------|
G|-------------------------------|
D|-------------------------5-5-5-|
A|-------------------------5-5-5-|
E|-3-3-3-3-3-3-3-3-3-3-3-3-3-3-3-|
play this four times

solo
E|-8-------------10-8-----8-------------10-|
B|---10-------11----10------10-------11----|
G|------10-12-------10-10------10-12-------|
D|-----------------------------------------|
A|-----------------------------------------|
E|-----------------------------------------|

then repeat the pre-chorus again except there is a part whare all the guitars are 
(listen to the recording). then repeat the chorus and fade out.
Comments