Kiss - Hard Luck Woman Chords & Tabs

 

Hard Luck Woman Chords & Tabs

Kiss Chords & Tabs

Version: 2 Type: Tab 0 ratings
1 star 2 stars 3 stars 4 stars 5 stars
comments

Hard Luck Woman Tab

#----------------------------------PLEASE NOTE---------------------------------#
#This file is the author's own work and represents their interpretation of the #
#song. You may only use this file for private study, scholarship, or research. #
#------------------------------------------------------------------------------##

robs@violet.berkeley.edu (Rob Schenk)

Hard Luck Woman
by Kiss

off the album, Rock and Roll Over

tune down 1/2 step

-------------0-0-0-0-0-0-0-0-0-0-
-------------3-3-3-3-1-2-2-2-2-3-
-------------2-2-2-2---3-3-3-3-2-
--------2-0--0-0-0-0-----------0-
----0-3--------------------------
-0-3-----------------------------

-0-1-3-0----------3-3-3-3-3--1-1-
-0-1-3-1------3/5--5-5-5-5-5-3-3-
-0-2-0-0-------------------------
-2-3-0-2-------------------------
-2-3-x-3-------------------------
-0-1-3---------------------------
[ Tab from: http://www.guitartabs.cc/tabs/k/kiss/hard_luck_woman_tab_ver_2.html ]
---------------------------
---------------------------
---------------------------
-5h7-5---------------------
------7-5---------3-5/7-5v-
----------8----3-5---------

---------------------------13p12----12---
--------------------------------13----13-
----------------------------------12-----
-----------------------------------------
----3-5/7-5-3v----5-7-8-10---------------
-3-5-------------------------------------

--0-0-0-0-0-0-0-0-0-0--3-1---1--
--3-3-3-3-1-2-2-2-2-3--5-1-3-0--
--2-2-2-2---3-3-3-3-2--4-2-0-2--
--0-0-0-0-----------0---2-3-0-3-
-----------------------------x--
-----------------------------3--

-----1-1-0-0-0-0------1----
-----1-1-3-3-3-3------1-3--
-2X--2-0-2-2-2-2------2-0--
-----3-2-0-0-0-0------3-0--
-------------------------x-
-------------------------3-

-----------0-0-0-0-1--1--1--1--------0-1----
-1-1-1-1--3-3-3-3-1--1--1---1--3--1-3-1-3---
-0-0-0-0--2-2-2-2-2--2--2---2--0--0-2-2-0---
-2-2-2-2--0-0-0-0-3--3--3---3--0--2-0-3-0---
-3-3-3-3-----------3--3--3---3--x--3-----x--
-------------------1--1---1--1--3---------3-
Comments