Kiss - Great Expectations Chords & Tabs

 

Great Expectations Chords & Tabs

Kiss Chords & Tabs

Version: 2 Type: Tab 0 ratings
1 star 2 stars 3 stars 4 stars 5 stars
comments

Great Expectations Tab

Great Expectations by KISS
From the album Destroyer
Transcriber: Unknown
--------------------------------------------------------------------



    intro acoustic                      "You're sittin.."
e:---------------------------------------------------------------------------|
B:---6---4---4--------------7--9--------2--2-2----------4--4-4------2----7---|
G:---7---5---6-----4--3--6--6--8--6-----3--3-3----------6--6-6------3----6---|
D:---8---6---6-----4--3--6--4--6--6-----3--3-3----------6--6-6------3----4---|
A:---8---6---4-----2--1--4--------4-----1--1-1----------4--4-4------1--------|
E:---6---4-------------------------------------------------------------------|



[ Tab from: http://www.guitartabs.cc/tabs/k/kiss/great_expectations_tab_ver_2.html ]
       "Our music.."
e:---------------------------------------------------------------------------|
B:4------2------2------7-----8-----4-----------------------------------------|
G:6------3------3------6-----7-----6----------6--4--2-----9-----2-----9---9/11
D:6------3------3------4-----6-----6----------6--4--2-----9-----2-----9---9/11
A:4------1------1------------------4----------4--2--0-----7-----0-----7---7/9|
E:--------------------------------------------------------0-----------0------|
                                          electric



                                             "You've got.."        repeat
e:---------------------------------------------------------------------------|
B:------------------------------9-9--9-9-9-----------------------------------|
G:--11---4---6------------------8-8--8-8-8-----2--------------9~-------------|
D:--11---4---4---6-6-6-6-6-6-6--6-6--6-6-6-----2---6--4---2---9~-------------|
A:--9----2-------4-4-4-4-4-4-4-----------------0---6--4---2---7~---------0-2-|
E:-------------------------------------------------4--2---0---0~---0-2-4-----|


                                            

        solo fill
e:---|-------------------------------------|
B:---|-------------14~------------19-21----|
G:---|---15~--13~--------16-15-18-------18-|
D:---|-------------------------------------|
A:4--|-------------------------------------|
E:---|-------------------------------------|
Comments