Kiss - Got To Choose Chords & Tabs

 

Got To Choose Chords & Tabs

Kiss Chords & Tabs

Version: 3 Type: Tab 0 ratings
1 star 2 stars 3 stars 4 stars 5 stars
comments

Got To Choose Tab

   
----------------------------------------------------------------------------
			     Got To Choose - KISS
----------------------------------------------------------------------------
Tabbed by: Richie Panic
Email: ThePanakAttack@hotmail.com

This is off the Hotter Than Hell Album version of the song...

This would be the correct way to play this song...note that the d string is open in
the intro...that means get of each chord quickly in the intro to get that steady
eighth rhythm D note...2nd guitar part is surrounded with ( )...notice (for all
people who know their chords) that there is a C going into a D, and I left out
the bass notes...I doesn't matter what you do, a standard D and C chords are fine,
any C and D chords are fine, as long as you play the open D string in between.

Tuning: 1/2 step down all strings

Intro:
e|---7---------------------------7-7---------------------------------------|
B|---8---5---7-7-7-7-7-----7-----8-8-----------5-----7-7--------7---7------|
G|---9---5---7-7-7-7-7-----7-----9-9-----------5-----7-7--------7---7------|
D|---7---5---7-7-7-7-7--0--7--0--7-7--0--0--0--5--0--7-7--0--0--7-0-7-0----|
A|-------------------------------------------------------------------------|
E|-------------------------------------------------------------------------|

e|---7-7-----------------------------------------7-7-----------------------|
B|---8-8-----------5-----7-7----13^15--13^15-----8-8-----------5-----7-7---|
G|---9-9-----------5-----7-7---(12^14)(12^14)----9-9-----------5-----7-7---|
D|---7-7--0--0--0--5--0--7-7---------------------7-7--0--0--0--5--0--7-7---|
A|-------------------------------------------------------------------------|
E|-------------------------------------------------------------------------|

e|-------------------------7-7---------------------------------------------|
B|---------13^15--13^15----8-8-----------5-----7-7-----------13^15--13^15--|
G|--------(12^14)(12^14)---9-9-----------5-----7-7----------(12^14)(12^14)-|
D|--0--0-------------------7-7--0--0--0--5--0--7-7---0--0------------------|
A|-------------------------------------------------------------------------|
E|-------------------------------------------------------------------------|
[ Tab from: http://www.guitartabs.cc/tabs/k/kiss/got_to_choose_tab_ver_3.html ]
Verse: (just keep repeating this on verses...its the same for every one)
e|---2-2-------------------3--3---2-2------------------3--3----------------|
B|---3-3---2--4--5---------3--3---3-3---2--4--5--------3--3----------------|
G|---2-2---2--4--5---5-----4--4---2-2---2--4--5---5----4--4----------------|
D|---0-0---2--4--5-----5---5--5---0-0---2--4--5-----5--5--5----------------|
A|---------0--2--3---------5--5---------0--2--3--------5--5----------------|
E|-------------------------3--3------------------------3--3----------------|


1st half of the Chorus and Solo Chord Progression:
e|-------------------------------------------------------------------------|
B|---3--3-------------5-5------------5-5------------7-7--------7--------5--|
G|---3--3-------3-----5-5------3-----5-5-------5----7-7--------7--------5--|
D|---3--3---1h3---0---5-5--1h3---0---5-5--3h5----5--7-7--------7--------5--|
A|---1--1-------------3-3------------3-3------------5-5---5h7------3h5-----|
E|-------------------------------------------------------------------------|

2nd half of the Chorus with 2nd Guitar Part: 
e|-------------------------------------------------------------------------|
B|---3--3--------------5-5---------------5-5------------7------------------|
G|---3--3--------3-----5-5---------3-----5-5-------5----7------------------|
D|---3--3---1h3-(3)-0--5-5---1h3--(3)-0--5-5--3h5----5--7------------------|
A|---1--1--(1h3)---(1)-3-3--(1h3)----(1)-3-3------------5------------------|
E|-------------------------------------------------------------------------|

End:
e|--2--2-------------------------------------------------------------------|
B|--3--3---2--4--5--2--4--5--2--4--5-(ring)--------5-5--5-5--5-5/7---------|
G|--2--2---2--4--5--2--4--5--2--4--5-(ring)--------5-5--5-5--5-5/7---------|
D|--0--0---2--4--5--2--4--5--2--4--5-(ring)--------5-5--5-5--5-5/7---------|
A|---------0--2--3--0--2--3--0--2--3-(ring)--------3-3--3-3--3-3/5---------|
E|-------------------------------------------------------------------------|


I'll do the solo later...



| ^  bend
| /  slide up
| \  slide down
| h  hammer-on
| p  pull-off
| ~  vibrato
| +  harmonic
| x  Mute note
============================================================================
Comments