Kiss - God Of Thunder Chords & Tabs

 

God Of Thunder Chords & Tabs

Kiss Chords & Tabs

Version: 7 Type: Tab 0 ratings
1 star 2 stars 3 stars 4 stars 5 stars
comments

God Of Thunder Tab

Song: God of thunder
Band: Kiss
Feel free to use this tab for your own purpose.
e:---------------------------------------------------------------------|
B:---------------------------------------------------------------------|
G:---------------------------------------------------------------------|
D:---------------------------5---------------5---5--7-7pull up--5-7----|
A:-----7---5-5h7-----7---5-7-------7---5-5h7---7-----------------------|
E:-0-0---7-------0-0---7-------0-0---7---------------------------------|
                         
e:----------------------------------------------------------------------|
B:----------------------------------------------------------------------|
G:----------------------------------------------------------------------|
D:---------------------------5------------------------------------------|
A:-----7---5-5h7-----7---5-7-------7---5-5h7-----7---5h7-5h7------------|
E:-0-0---7-------0-0---7-------0-0---7-------0-0---7--------------------|

Chorus
e:----------------------------------------------------------------------|
B:----------------------------------------------------------------------|
G:----------------------------------------------------------------------|
D:---------------------------5---------------5---5-7-7pul up-5-7--------|
A:-----7---5-5h7-----7---5-7-------7---5-5h7---7------------------------|
E:-0-0---5-------0-0---7-------0-0---7----------------------------------|

e:----------------------------------------------------------------------|
B:----------------------------------------------------------------------|
G:----------------------------------------------------------------------|
D:---------------------------5------------------------------------------|
A:-----7---5-5h7-----7---5-7-------7---5-5h7-----7---5h7-5h7------------|
E:-0-0---5-------0-0---7-------0-0---7-------0-0---5--------------------|
(play twice)
[ Tab from: http://www.guitartabs.cc/tabs/k/kiss/god_of_thunder_tab_ver_7.html ]
   "God of thunder..."
e:---------------------------------------------------------------------------|
B:---------------------------------------------------------------------------|
G:--5-5----7-7----7-7----9~-----5-5----9-9-----------------4~-----5-5-----7-7|
D:--5-5----5-5----7-7----9~-----5-5----9-9------2-2-2-2-2--4~-----5-5-----5-5|
A:--3-3-----------5-5----7~-----3-3----7-7------0-0-0-0-0--2~-----3-3--------|
E:---------------------------------------------------------------------------|

                  "Will slowly..."
e:---------------------------------------------------------|
B:---------------------------------------------------------|
G:-----7-7----9~-----------------------7----7-7-7-7-7-7-7--|
D:-----7-7----9~---------5-4-5-4-5-----5----7-7-7-7-7-7-7--|
A:-----5-5----7~---------3-2-3-2-3----------5-5-5-5-5-5-5--|
E:---------------------------------------------------------|

     

solo !!!
e:---------------------------------------------------------------------------|
B:---------------------------------------------10b~~----------15b-15b-15b/15-|
G:-----------------4b~~~--------7b-7b-7b/7-----------------------------------|
D:-----------------------------------------9---------------------------------|
A:------------------------------------------10-------------------------------|
E:----6~~--7~~---------------------------------------------------------------|
}

e:---------------------------------------------------------------------------|
B:12-15-15b~---15/12---------------12-15/12----12---12--15/12---12---12--15/1|
G:------------------14-12/11~---14b---------14b--14b---------14b--14b--------|
D:---------------------------------------------------------------------------|
A:---------------------------------------------------------------------------|
E:---------------------------------------------------------------------------|
                                         

e:---------------15b-15-12/15/12------------|
B:2--15/12---12-----------------15-15b-15b~~|
G:--------14b-------------------------------|
D:------------------------------------------|
A:------------------------------------------|
E:------------------------------------------|


If you feel that this tabs is wrong in anyway please e-mail me at kiss_rock@hotmail.com
Comments