Kiss - God Of Thunder Chords & Tabs

 

God Of Thunder Chords & Tabs

Kiss Chords & Tabs

Version: 6 Type: Tab 0 ratings
1 star 2 stars 3 stars 4 stars 5 stars
comments

God Of Thunder Tab

-------------------------------------------------------------------------------
			     God of Thunder - KISS
-------------------------------------------------------------------------------
By: adiduz

Yeah, uh, I came up with this one night because I had the song stuck in my head... This is 
how I (I, maybe not you) play it. If there is something wrong, please don't think I perverted
a good song, just email me (ray_warrick@hotmail.com) and let me know what's wrong with the tab.
[ Tab from: http://www.guitartabs.cc/tabs/k/kiss/god_of_thunder_tab_ver_6.html ]
INTRO
e|---------------------------------------------------------------------------|
B|---------------------------------------------------------------------------|
G|---------------------------------------------------------------------------|
D|---------------------------5-----------------5-2-5-7-8-7-5-7---------------|
A|-----7---5-7-------7---5-7---------7---5-7---------------------------------|
E|-0-0---7-------0-0---7---------0-0---7-------------------------------------|
									
e|---------------------------------------------------------------------------|
B|---------------------------------------------------------------------------|
G|---------------------------------------------------------------------------|
D|---------------------------5-----------------------------------------------|
A|-----7---5-7-------7---5-7---------7---5-7-------7---5h7-5h7---------------|
E|-0-0---7-------0-0---7---------0-0---7-------0-0---7-----------------------|
										2X
CHORUS
e|---------------------------------------------------------------------------|
B|---------------------------------------------------------------------------|
G|---------------------------------------------------------------------------|
D|---------------------------------------------------------------------------|
A|-9-9---4-4---11-11---13-13-13------9-9---4-4---5---------------------------|
E|-7-7---2-2---9--9----11-11-11------7-7---2-2---3---------------------------|

e|---------------------------------------------------------------------------|
B|---------------------------------------------------------------------------|
G|---------------------------------------------------------------------------|
D|---------------------------------------------------------------------------|
A|-9-9---4-4---11-11---13-13-13---9-8-9-8-9-13-11-11-11-11-11-11-11----------|
E|-7-7---2-2---9--9----11-11-11---7-6-7-6-7-11-9--9--9--9--9--9--9-----------|

That's pretty much all there is to it.

===============================================================================
Comments