Kiss - God Of Thunder Chords & Tabs

 

God Of Thunder Chords & Tabs

Kiss Chords & Tabs

Version: 1 Type: Tab 4 ratings
1 star 2 stars 3 stars 4 stars 5 stars
comments

God Of Thunder Tab

God Of Thunder by KISS
From the album Destroyer
--------------------------------------------------------------------




e:---------------------------------------------------------------------------|
B:---------------------------------------------------------------------------|
G:---------------------------------------------------------------------5-----|
D:------------------------------------------5~-------------------------5-----|
A:--------7-----5--5/7~---------7-----5--7-------------7-----5--5/7-------7--|
E:--0--0-----5-----------0---0-----5-------------0--0-----5------------------|


                                                                    

        repeat       "Hear my word..."
e:-----------------|-----------------------------------------------|
B:-----------------|-----------------------------------------------|
G:5--7--7b/7--5--7-|-----------------------------------------------|
D:5--7--7b/7--5--7-|-----------------------------------------------|
A:-----------------|--------7-----5--5/7---------7-----5/7-7-7-7-7-|
E:-----------------|--0--0-----5------------0--0----0--------------|
                     verses



   "God of thunder..."
e:---------------------------------------------------------------------------|
B:---------------------------------------------------------------------------|
G:--5-5----7-7----7-7----9~-----5-5----9-9-----------------4~-----5-5-----7-7|
D:--5-5----5-5----7-7----9~-----5-5----9-9------2-2-2-2-2--4~-----5-5-----5-5|
A:--3-3-----------5-5----7~-----3-3----7-7------0-0-0-0-0--2~-----3-3--------|
E:---------------------------------------------------------------------------|

[ Tab from: http://www.guitartabs.cc/tabs/k/kiss/god_of_thunder_tab.html ]
                                                            

                  "Will slowly..."
e:---------------------------------------------------------|
B:---------------------------------------------------------|
G:-----7-7----9~-----------------------7----7-7-7-7-7-7-7--|
D:-----7-7----9~---------5-4-5-4-5-----5----7-7-7-7-7-7-7--|
A:-----5-5----7~---------3-2-3-2-3----------5-5-5-5-5-5-5--|
E:---------------------------------------------------------|




     solo
e:---------------------------------------------------------------------------|
B:---------------------------------------------10b~~----------15b-15b-15b/15-|
G:-----------------4b~~~--------7b-7b-7b/7-----------------------------------|
D:-----------------------------------------9---------------------------------|
A:------------------------------------------10-------------------------------|
E:----6~~--7~~---------------------------------------------------------------|





e:---------------------------------------------------------------------------|
B:12-15-15b~---15/12---------------12-15/12----12---12--15/12---12---12--15/1|
G:------------------14-12/11~---14b---------14b--14b---------14b--14b--------|
D:---------------------------------------------------------------------------|
A:---------------------------------------------------------------------------|
E:---------------------------------------------------------------------------|


                                            


e:---------------15b-15-12/15/12------------|
B:2--15/12---12-----------------15-15b-15b~~|
G:--------14b-------------------------------|
D:------------------------------------------|
A:------------------------------------------|
E:------------------------------------------|


Comments