Kiss - Do You Love Me Chords & Tabs

 

Do You Love Me Chords & Tabs

Kiss Chords & Tabs

Version: 2 Type: Bass Tab 0 ratings
1 star 2 stars 3 stars 4 stars 5 stars
comments

Do You Love Me Bass Tab

Do you love me by Kiss
Tune down 1/2 step


Gb|--------------------------------------------------------|
Db|--------------------------------------------------------|_
Ab|---------------------------5----------------------------| |
Eb|----5--0------5--0------5---------5--0------------------| |
                                                             |_x2
Gb|--------------------------------------------------------| |
Db|--------------------------------------------------------| |
Ab|-----2----2-2-----2----2---2-2-0-------2----2-2---2-----|_|
Eb|-0-2----2-------2----2---2-------4-2-0----2-----2-------|
      |---x2----|                            |---x3---|
[ Tab from: http://www.guitartabs.cc/tabs/k/kiss/do_you_love_me_btab_ver_2.html ]
Gb|--------------------------------------------------------|
Db|--------------------------------------------------------|
Ab|---------------------------5----------------------------|
Eb|----5--0------5--0------5---------5--0------------------|

Gb|----------------4-4---4----6-6---6----6-6---------------|
Db|--------------------------------------------------------|
Ab|------2-------2-----2----4------4---4-----4\------------|
Eb|-0h2----0h^2---------------------------------2--2-2-2-2-|
    |--x2-|      |--x4---|  |---x2--|

Gb|--------------------------------------------------------|
Db|--------------------------------------------------------|  x2
Ab|---------------------------5----------------------------|
Eb|----5--0------5--0------5---------5--0------------------|

Gb|--------9-9---9------7-7----7-------9-9---9-------------|
Db|--------------------------------------------------------| (repeat until
Ab|-----7------7------5-----5-------7------7---------------|   fade out)
Eb|--------------------------------------------------------|
        |---4x---|    |---2x---|    |---2x---|
Comments