Kiss - Deuce Chords & Tabs

 

Deuce Chords & Tabs

Kiss Chords & Tabs

Version: 4 Type: Tab 0 ratings
1 star 2 stars 3 stars 4 stars 5 stars
comments

Deuce Tab

please under stand that i am new and dont lie like all the other people that say this is 
first tab. i was bored one day and i started to play this:
\-slide
h-hammer on
v-vibrato
[ Tab from: http://www.guitartabs.cc/tabs/k/kiss/deuce_tab_ver_4.html ]
|----------------------------------------------------------------------------|
|----------------------------------------------------------------------------|
|-14-14-14-14-14-14-0----------10----------12-12-----------------------------|
|-14-14-16-14-16-14-0-10-10----10-12-12----12-14-\12-12----------------------|
|-0v------------------10-10-h12---12-12-h14----------14----------------------|
|----------------------------------------------------------------------------|

|----------------------------------------------------------------------------|
|----------------------------------------------------------------------------|
|14-14-14-14-14-14-0----------10---------------------------------------------|
|14-14-16-14-16-14-0-10-10----10---------------------------------------------|
|0v------------------10-10-\12-----------------------------------------------|
|----------------------------------------------------------------------------|
play real fast without and with distortion and tone turned all the way up its awsome
Comments