Kiss - Deuce Chords & Tabs

 

Deuce Chords & Tabs

Kiss Chords & Tabs

Version: 3 Type: Tab 0 ratings
1 star 2 stars 3 stars 4 stars 5 stars
comments

Deuce Tab

   
Deuce by KISS
Transcribed by Underhander

The only reason I made this tab was because I got unimaginably sick of seeing
the exact same one all over the place.  Every tab site had the same one!  So
I made my own.  I hope this one helps you more than the other.


Intro/outro:
e -0--0-----0-----0-------------------------0--0--------0-----0----------|
B -11-11-0--11-0--11-------6------8---------11-11-0--0--11-0--11-------6-|
G -9--0--11-9--11-9----5---5--7---7-11-7----9--9--11-11-9--11-9----5---5-|
D -------------------0-5-7----7-9--------9-----------------------0-5-7---|
A -------------------0-------------------------------------------0-------|
E -----------------------------------------------------------------------|

Riff A:
e -------------0---------0-0------------------|
B ---------1-1-1--3-1-1--1-1--3-1-------------|
G -0-2-2-2-----0--2------0----2-0--2--0-------|
D -0-2-2-2-------------------------2--0-------|
A --------------------------------------------|
E --------------------------------------------|

Verse A:
e -5----------------0---------0-0-------------|
B -5-5-7--------1-1-1--3-1-1--1-1--3-1--------|
G -5-5-7--0-2-2-----0--2------0----2-0--2--0--|
D -7-5-7--0-2-2-------------------------2--0--|
A -7-3-5--------------------------------------|
E -5------------------------------------------|
[ Tab from: http://www.guitartabs.cc/tabs/k/kiss/deuce_tab_ver_3.html ]
Verse B:
e -5----------------|
B -5--5--7--5--2----|
G -5--5--7--5--2----|
D -7--5--7--5--2----|
A -7--3--5--3--0----|
E -5----------------|

Chorus:
e ------------------------------------------1--3-3-3----|
B ------------------------------------------1--3-3-3----|
G ------------------------------------------2--4-4-4----|
D ------------------------------------------3--5-5-5----| 
A -3---3-4-5-----------3---3-4-5------------3--5-5-5----|
E -----------3-4-5--0------------3-4-5--0---1--3-3-3----|


Riff B:
e ------------------------------------------------------------|
B -----------------------8-8-8-8-8-8-8-8-----8-8-8-8-8-8-8-8--|
G -------------------7/9-----------------7/9------------------|
D ---------2--4--5--------------------------------------------|
A --0--10-----------------------------------------------------|
E ------------------------------------------------------------|

Riff C:
e ------------------------------|
B ------------------2-----------|
G ------------------2-----------|
D ---------2--4--5--2-----------|
A --0--10-----------0------12---|
E ------------------------------|

Solo:
The solo in this song is kind of wacky.  If i ever have time, ill figure it out.



Order of the Song:
Intro:    1x
Riff A:   4x
Verse A:  2x
Verse B:  1x
Chorus:   1x
Riff A    4x
Riff B:   2x
Riff C:   1x
Solo:     1x  (Riff A 8x in the backround)
Chorus:   1x
Outro:    1x
End Solo  1x  (Riff A ?x in the backround)


ENJOY!
Comments