Kiss - Detroit Rock City Chords & Tabs

 

Detroit Rock City Chords & Tabs

Kiss Chords & Tabs

Version: 9 Type: Tab 0 ratings
1 star 2 stars 3 stars 4 stars 5 stars
comments

Detroit Rock City Tab

   
----------------------------------------------------------------------------
			     Detroit Rock City - Kiss
----------------------------------------------------------------------------

Tabbed by: Matt
Email: matx33@hotmail.com

Tuning: Standard (eBGDAE)

I take entire credit for this tab...if you find something like it elsewhere, it\'s purely coincidence.
I Spent a while tabbing this, and it\'s my first tab. Hope it\'s good!
You really have to listen to the timing, especially at the beginning and at the end. 
That end part can really catch you on the timing, so listen to the song and work it out.

h=hammer on
p=pull off
/=slide
b=bend
~vibrato

Intro

0:04 
Guitar 1 
e|-----------------------------------------------------|
B|-----------------------------------------------------|
G|-----------------------------------------------------|
D|-----------------------------------------------------|
A|--3--1--3--1--3--1--3--1--3--1--3--1--3--1--333333---|
E|-----------------------------------------------------|

0:08
Guitar 2
e|-----------------------------------------------------|
B|-----------------------------------------------------|
G|-----------------------------------------------------|
D|--5--3--5--3--5--3--5--3--5--3--5--3--5--3--555555---|
A|-----------------------------------------------------|
E|-----------------------------------------------------|

0:10
both guitars 
e|-----------------|
B|-----------------|
G|-----------------|
D|-------7-----9---|
A|-------7-----9---|
E|-----0-5---0-7---|

0:16
Guitar 1
e|-----------------------------------------------------|
B|-----------------------------------------------------|
G|-----------------------------------------------------|
D|-----------------------------------------------------|
A|--3--1--3--1--3--1--3--1--3--1--3--1--3--1--333333---|
E|-----------------------------------------------------|

0:16
Guitar 2 
e|-----------------------------------------------------|
B|-----------------------------------------------------|
G|-----------------------------------------------------|
D|--5--3--5--3--5--3--5--3--5--3--5--3--5--3--555555---|
A|-----------------------------------------------------|
E|-----------------------------------------------------|

0:21
both guitars 
e|-----------------|
B|-----------------|
G|-----------------|
D|-------7-----9---|
A|-------7-----9---|
E|-----0-5---0-7---|

0:26 
Both guitars
e|--------------------------|
B|--------------------------|
G|-----------8---------10---|
D|-----10----8----8----10---| x 2
A|-----10----6----8----8----|
E|-----8----------6---------|

0:47
Both guitars 
e|-----------------|
B|-----------------|
G|-----------------|
D|-------7-----9---|
A|-------7-----9---|
E|-----0-5---0-7---|

0:53
Guitar 1 or 2
e|---------------------------------------|
B|---------------------------------------|
G|---------------------------------------|
D|---------------------------1-------1---|
A|----3--3-1----1-3----3-1-3---3---1---3-|
E|------------3------------------3-------|

0:57
Both guitars
e|-----------------|
B|-----------------|
G|-----------------|
D|-------7-----9---|
A|-------7-----9---|
E|-----0-5---0-7---|

1:03
Both guitars
e|--------------------------|
B|--------------------------|
G|-----------8---------10---|
D|-----10----8----8----10---|
A|-----10----6----8----8----|
E|-----8----------6---------|

1:24
Both guitars
e|-----------------|
B|-----------------|
G|-----------------|
D|-------7-----9---|
A|-------7-----9---|
E|-----0-5---0-7---|

1:29
Guitar 1 or 2
e|---------------------------------------
B|---------------------------------------
G|---------------------------------------
D|---------------------------1-------1---
A|----3--3-1----1-3----3-1-3---3---1---3-
E|------------3------------------3-------

1:35
Guitar 1 or 2
e|---------------------------------------------------|
B|---------------------------------------------------|
G|---------------------------------------------------|
D|---------------------------1-----10-10-10-10-8-----|
A|----3--3-1----1-3----3-1-3---3-----------------10--|
E|------------3--------------------------------------|

1:40
Guitar 1 or 2
e|---------------------------------------|
B|---------------------------------------|
G|---------------------------------------|
D|---------------------------1-------1---|
A|----3--3-1----1-3----3-1-3---3---1---3-|
E|------------3------------------3-------|

1:45
Guitar 1 or 2
e|--------------------------------|
B|--------------------------------|
G|--------------------------------|
D|---------------------------1----|
A|----3--3-1----1-3----3-1-3---3--|
E|------------3-------------------|

1:49
Guitar 1 or 2
e|---------------------------------------|
B|---------------------------------------|
G|---------------------------------------|
D|---------------------------3-------3---|
A|----5--5-3----3-5----5-3-5---5---3---5-|
E|------------5------------------5-------|
[ Tab from: http://www.guitartabs.cc/tabs/k/kiss/detroit_rock_city_tab_ver_9.html ]
1:54
Guitar 1 or 2
e|--------------------------|
B|--------------------------|
G|--------------------------|
D|----------3--------1------|
A|----5-3-5---5----1---3----|
E|---------------3----------|

1:57
Guitar 1 and 2
e|-----------------|
B|-----------------|
G|-----------------|
D|-------7-----9---|
A|-------7-----9---|
E|-----0-5---0-7---|

2:02
Guitar 1 and 2
e|--------------------------|
B|--------------------------|
G|-----------8---------10---|
D|-----10----8----8----10---|
A|-----10----6----8----8----|
E|-----8----------6---------|

2:13
Guitar 1 and 2
e|--------------------------|
B|--------------------------|
G|-----------8---------10---|
D|-----10----8----8----10---|
A|-----10----6----8----8----|
E|-----8----------6---------|

2:23
Guitar 1 or 2
e|-----------------|
B|-----------------|
G|-----------------|
D|-------7-----9---|
A|-------7-----9---|
E|-----0-5---0-7---|

*Drum beats*

Solo

2:33
Guitar 1
e|-----------------------------------------------------------------|
B|-------3----4p3---4p3---------3p4-3------------------------------|
G|-----3---5------5-----5p3---3-------3p1-0-1-------5p3---5p3------|
D|---5--------------------------------------------------6-----6p5--|
A|-----------------------------------------------------------------|
E|-----------------------------------------------------------------|

2:43
Guitar 1
e|-----------------------------------------------------------------|
B|-------3----4p3---4p3---------3p4-3------------------------------|
G|-----3---5------5-----5p3---3-------3p1-0-1----1/0-3/4--5--------|
D|---5-------------------------------------------------------------|
A|-----------------------------------------------------------------|
E|-----------------------------------------------------------------|

Guitar 2
e|-----------------------------------------------------------------|
B|-------6----8p6---8p6---------6p8-6------------------------------|
G|-----7---8------8-----8p7---7-------7p5-4-5----5/4-6/7--5--------|
D|---8-------------------------------------------------------------|
A|-----------------------------------------------------------------|
E|-----------------------------------------------------------------|

This part\'s was bit tricky to tab... G. will represent guitar.
These are really quick, almost overlapping

2:53
   Guitar 1            Guitar 2        G. 1      Guitar 2
e|-------------|----------------------|-----|-------------------|
B|-------------|-------8p6----8p6-----|-----|---6p8-6-----------|
G|--555555-----|-8~~~------8------8p7-|-----|-7-------7-5/8-7---|
D|-----------7-|----------------------|---9-|-------------------|
A|-----------7-|----------------------|---9-|-------------------|
E|---------0-5-|----------------------|-0-7-|-------------------|

3:00
Guitar 1
e|---------------------------------------|
B|---------------------------------------|
G|---------------------------------------|
D|---------------------------1-------1---|
A|----3--3-1----1-3----3-1-3---3---1---3-|
E|------------3------------------3-------|

Guitar 2
e|-------------------8-6h8h6-------|
B|---8-6-----------8---------8-6---|
G|-------8--7-7-8----------------8-|
D|---------------------------------|
A|---------------------------------|
E|---------------------------------|

And this again,

3:05
    Guitar 1           Guitar 2        G. 1       Guitar 2
e|-------------|----------------------|-----|-------------------|
B|-------------|-------8p6----8p6-----|-----|---6p8-6-----------|
G|-------------|-8~~~------8------8p7-|-----|---------8-7-6-5---|
D|-----------7-|----------------------|---9-|-------------------|
A|-----------7-|----------------------|---9-|-------------------|
E|---------0-5-|----------------------|-0-7-|-------------------|

3:11
       Guitar 1 & 2
e|--------------------------|
B|--------------------------|
G|-----------8---------10---|
D|-----10----8----8----10---|
A|-----10----6----8----8----|
E|-----8----------6---------|

3:31
   Guitar 1         Guitar 2      
e|------------|-------------------|
B|------------|-------------------|
G|------------|----8-7-7-8p7-8b---|
D|-------7----|-------------------|
A|-------7----|-------------------|
E|-----0-5----|-------------------|

3:34 
   Guitar 1         Guitar 2
e|------------|-------------------|
B|------------|-------------------|
G|------------|---7-8-7-----------|
D|-------9----|---------10-8-10---|
A|-------9----|-------------------|
E|-----0-7----|-------------------|

3:40
   Guitar 1
e|------------|-------------------|
B|------------|----8-7-7-8p7-8b---|
G|------------|-------------------|
D|-------7----|-------------------|
A|-------7----|-------------------|
E|-----0-5----|-------------------|

3:43
   Guitar 1         Guitar 2
e|------------|-----------7-8-----|
B|------------|---7-8-7-----------|
G|------------|---------8---------|
D|-------9----|-------------------|
A|-------9----|-------------------|
E|-----0-7----|-------------------|

CAR CRASH!!!

That\'s it folks. Hope you liked it, this works real well for me. Feedback please!
Comments