Kiss - Detroit Rock City Chords & Tabs

 

Detroit Rock City Chords & Tabs

Kiss Chords & Tabs

Version: 8 Type: Tab 0 ratings
1 star 2 stars 3 stars 4 stars 5 stars
comments

Detroit Rock City Tab

Kiss
Detroit Rock City


I guitar
|-----------------------------------------|
|-----------------------------------------| 
|-----------------------------------------|
|-----------------------------------------| 
|-----------------------------------------| 
|--9-7-9-7-9-7-9-7-9-7--9-9-9-9-9-9-9-9---|
|
| II guitar
|-----------------------------------------| 
|-----------------------------------------|
|-----------------------------------------| 
|--6-4-6-4-6-4-6-4-6-4--6-6-6-6-6-6-6-6---|
|-----------------------------------------|
|-----------------------------------------|


|------------------|
|------------------|
|------------------|
|----7-----9-------|
|----7-----9-------|
|--0-5---0-7-------|


|------------------------------------|
|------------------------------------|
|---------------9-------------11-----|
|--11-----------9------9------11-----|
|--11-----------7------9------9------|
|--9-------------------7-------------|



|------------------|
|------------------|
|------------------|
|----7-----9-------|
|----7-----9-------|
|--0-5---0-7-------|

 I guitar
|-------------------------------------------|
|-------------------------------------------|
|-------------------------------------------|
|---------------------------2---------2-----|
|--4---4-2---2-4------4-2-4---4-2---2---4---|
|----------4----------------------4---------|
|
|II guitar
|--------------------------| 
|--------------------------|
|--6-4-6-4-6-4-6-4-6-4-----| 
|--6-4-6-4-6-4-6-4-6-4-----|
|--------------------------|
|--------------------------|


|------------------|
|------------------|
|------------------|
|----7-----9-------|
|----7-----9-------|
|--0-5---0-7-------|


|------------------------------------|
|------------------------------------|
|---------------9-------------11-----|
|--11-----------9------9------11-----|
|--11-----------7------9------9------|
|--9-------------------7-------------|


|------------------|
|------------------|
|------------------|
|----7-----9-------|
|----7-----9-------|
|--0-5---0-7-------|



|-------------------------------------------|
|-------------------------------------------|
|-------------------------------------------|
|---------------------------2---------2-----|
|--4---4-2---2-4------4-2-4---4-2---2---4---|
|----------4----------------------4---------|

 I guitar                                
|-------------------------------|    
|-------------------------------|
|-------------------------------|
|---------------------------2---|
|--4---4-2---2-4------4-2-4---4-|
|----------4--------------------|
|
|II guitar
|-------------|
|-------------|
|-8-----------|
|-8-----------|
|-6-----------|
|-------------|
|
|I guitar
|----------------------------------------------------------------------|
|----------------------------------------------------------------------|
|----------------------------------------------------------------------|
|--------------------------4---------4-------4---4------------2--------|
|-6---6-4---4-6------6-4-6---6-4---4---6---6---6------4-2---2---4------|
|---------6----------------------6------------------------4------------|


|------------------|
|------------------|
|------------------|
|----7-----9-------|
|----7-----9-------|
|--0-5---0-7-------|


|------------------------------------|
|------------------------------------|
|---------------9-------------11-----|
|--11-----------9------9------11-----|
|--11-----------7------9------9------|
|--9-------------------7-------------|


|------------------|
|------------------|
|------------------|
|----7-----9-------|
|----7-----9-------|
|--0-5---0-7-------|



|----------------|
|----------------|
|----6-----------|
|----6-----------|
|----4-----------|
|--4-------------|


Solo
[ Tab from: http://www.guitartabs.cc/tabs/k/kiss/detroit_rock_city_tab_ver_8.html ]
|-----------------------------------------------------------------|
|-------4----5/4---5/4---------4/5-4------------------------------|
|-----4---6------6-----6/4---4-------4/2-1-2-------6/4---6/4------|
|---6--------------------------------------------------7-----7/6--|
|-----------------------------------------------------------------|
|-----------------------------------------------------------------|

 I guitar
|-----------------------------------------------------------------|
|-------4----5/4---5/4---------4/5-4------------------------------|
|-----4---6------6-----6/4---4-------4/2-1-2----------------------|
|---6------------------------------------------6-7/9--11----------|
|-----------------------------------------------------------------|
|-----------------------------------------------------------------|
|
|II guitar
|-----------------------------------------------------------------|
|-------7----9/7---9/7---------7/9-7------------------------------|
|-----8---9------9-----9/8---8-------8/6-5-6---5-6/8--6-----------|
|---9-------------------------------------------------------------|
|-----------------------------------------------------------------|
|-----------------------------------------------------------------|


|-9-9-9-9-9-9-9-------|
|---------------------|
|---------------------|
|---------------------|
|---------------------|
|---------------------|

 I guitar II guitar             I guitar II guitar
|--------|---------------------|--------|----------------|
|--------|-------9/7---9/7-----|--------|--7-9-7-----7---|
|--------|----9------9-----9/8-|--------|--------9/8---9-|
|----7---|--9------------------|----9---|----------------|
|----7---|---------------------|----9---|----------------|
|--0-5---|---------------------|--0-7---|----------------|

 I guitar
|-------------------------------------------|
|-------------------------------------------|
|-------------------------------------------|
|---------------------------2---------2-----|
|--4---4-2---2-4------4-2-4---4-2---2---4---|
|----------4----------------------4---------|
|
| II guitar                           
|----------------------9--7---------|
|--7/9-7-------------9------9-7-----|
|--------9-8/9------------------8-9-|
|-----------------------------------|
|-----------------------------------|
|-----------------------------------|
|
|I guitar
|--------|
|--------|
|--------|
|---7----|
|---7----|
|-0-5----|
|
|II guitar
|---------------|
|-9/7---9/7-----|
|-----9-----9/8-|
|---------------|
|---------------|
|---------------|
|
|I guitar
|--------|
|--------|
|--------|
|---9----|
|---9----|
|-0-7----|
|
|II guitar
|------------------|
|-7-9-7------------|
|-------9-8-6/8-6--|
|------------------|
|------------------|
|------------------|


|------------------------------------|
|------------------------------------|
|---------------9-------------11-----|
|--11-----------9------9------11-----|
|--11-----------7------9------9------|
|--9-------------------7-------------|

 I guitar II guitar        I guitar  II guitar      I guitar 
|--------|----------------|-------|----------------|--------|
|--------|----------------|-------|----------------|--------|
|--------|-9-8-6-6-8-9-8-9|-------|8-9-6---6-------|---6----|
|----7---|----------------|---9---|------9---------|---6----|
|----7---|----------------|---9---|----------------|---4----|
|--0-5---|----------------|-0-7---|----------------|-4------|

 I guitar    II guitar         I guitar    II guitar
|-----------|----------------|-----------|---------------|
|-----------|--9-7-------7/9-|-----------|-7-9-7-------9-|
|-----------|------9-9-8-----|-----------|-------9---8---|
|----7------|----------------|---9-------|---------------|
|----7------|----------------|---9-------|---------------|
|--0-5------|----------------|-0-7-------|---------------|
Comments