Kiss - Detroit Rock City Chords & Tabs

 

Detroit Rock City Chords & Tabs

Kiss Chords & Tabs

Version: 7 Type: Tab 0 ratings
1 star 2 stars 3 stars 4 stars 5 stars
comments

Detroit Rock City Tab

   
Ok! this is my first tab that i hav put online and it is 100% correct!!!  but it is not
hte full thing it is only 2/3...

 i didnt put the whole song because i only know it all on bass. it is the solo if you
like my stuff i put down now send it to woggster_madness@hotmail.com (only complements)
  
Kiss tune down 1/2 step but i play it in E,A,D,G,B,E

E: |-------------------------------------------------|
B: |-------------------------------------------------|
G: |------3--7--5------------------------------------|
D: |---5---------------------------------------------|
A: |-------------------------------------------------|
E: |-------------------------------------------------|



E: |-------------------------------------------------|
B: |-------------------------------------------------|
G: |-----8--7--5---------8--7--5---------------------|
D: |------------------------------8------------------|
A: |-------------------------------------------------|
E: |-------------------------------------------------|


E: |-------------------------------------------------|
B: |-------------------------------------------------|
G: |------7-8-7--------------------------------------|
D: |---8---------8--6--5--6--------------------------|
A: |-------------------------------------------------|
E: |-------------------------------------------------|


E: |-------------------------------------------------|
B: |-------------------------------------------------|
G: |---5---------5-----------------------------------|
D: |------8-6-------8--6---------5-------------------|
A: |-------------------------------------------------|
E: |-------------------------------------------------|
[ Tab from: http://www.guitartabs.cc/tabs/k/kiss/detroit_rock_city_tab_ver_7.html ]
Grt II comes in:
E: |-------------------------------------------------|
B: |-------------------------------------------------|
G: |------3--7--5------------------------------------|
D: |---5---------------------------------------------|
A: |-------------------------------------------------|
E: |-------------------------------------------------|



E: |-------------------------------------------------|
B: |-------------------------------------------------|
G: |-----8--7--5---------8--7--5---------------------|
D: |------------------------------8------------------|
A: |-------------------------------------------------|
E: |-------------------------------------------------|


E: |-------------------------------------------------|
B: |-------------------------------------------------|
G: |------7-8-7--------------------7--5--------------|
D: |---8---------8--6--5--6--5-----------------------|
A: |-------------------------------------------------|
E: |-------------------------------------------------|

E: |-------------------------------------------------|
B: |-------------------------------------------------|
G: |-------5-5-5-5-5-5--------7--8-------------------|
D: |-------------------------------------------------|
A: |-------------------------------------------------|
E: |-------------------------------------------------|

               LEGEND:
                         ~ = Vibrato
                         b = Bend
                         / = Slide Up
                         \ = Slide Down
                         p = Pull Off
                         h = hammer On
                        <> = Pinched Harmonic
                        
I am sorry that i didnt put the whole solo but u should be able to pick up the rest by
yourself. i am also sorry about the timing just play along with the song to play properly.

if you liked the tab please rate it ;- )
Comments