Kiss - Detroit Rock City Chords & Tabs

 

Detroit Rock City Chords & Tabs

Kiss Chords & Tabs

Version: 4 Type: Bass Tab 0 ratings
1 star 2 stars 3 stars 4 stars 5 stars
comments

Detroit Rock City Bass Tab

Detroit Rock City, standard tuning

G:--------------------------------------------|----------|
D:--------------------------------------------|----------|   x2
A:-3-1-3-1-3-1-3-1-3-1-3-1-3-1-3-1-3-1-3-1-333|--------1-|
E:--------------------------------------------|-1-4---1--|


G:------------------------5p3-------|
D:--------------1-------------5-1---|   x4
A:-3-1----3-1-3---3---3-1----------3|
E:----------------------------------|

G:----------|--------------------------------|----------|
D:----------|---------------------1-------1--|----------|
A:---------1|-3--3-1---1-3----1-3---3---1---3|---------1|
E:-1-4---1--|--------3------3---------3------|-1-4---1--|

G:------------------------5p3------|
D:--------------1-------------5-1--|  x4
A:-3-1----3-1-3---3---3-1---------3|
E:---------------------------------|

G:----------|--------------------------------|
D:----------|---------------------1-------1--|
A:--------1-|-3--3-1---1-3---1--3---3---1---3|
E:-1-4---1--|--------3-----3----------3------|
[ Tab from: http://www.guitartabs.cc/tabs/k/kiss/detroit_rock_city_btab_ver_4.html ]
G:-------------------------------|------------------|----------|
D:--------------------3-------3--|-------3-------3--|----------|
A:-5--5-3---3-5---3-5---5---3---5|---3-5---5---3---5|---------1|
E:--------5-----5---------5------|-5---------5------|-1-4---1--|

G:------------------------5p3------      |-------------|
D:--------------1-------------5-1--  x4  |-------------|
A:-3-1----3-1-3---3---3-1---------3      |--------1---3|
E:---------------------------------      |1-4---1---1--|

(Guitar Solo, no bass for first half)

G:----------|
D:----------|
A:---------1|
E:-1-4---1--|

G:-------------------------------|
D:--------------------1-------1--|
A:-3--3-1---1-3---1-3---3---1---3|
E:--------3-----3---------3------|

G:----------|
D:----------|
A:---------1|
E:-1-4---1--|

G:------------------------5p3------|      |----------|-------------|
D:--------------1-------------5-1--|  x4  |----------|-------------|
A:-3-1----3-1-3---3---3-1---------3|      |---------1|--------1---3|
E:---------------------------------|      |-1-4---1--|-1-4---1---1-|

Thats it, Rate it after you learn it. Thanks
_TheBassist01_
Comments