Kiss - Creatures Of The Nite Chords & Tabs

 

Creatures Of The Nite Chords & Tabs

Kiss Chords & Tabs

Version: 1 Type: Tab 0 ratings
1 star 2 stars 3 stars 4 stars 5 stars
comments

Creatures Of The Nite Tab

Kiss - Creatures of the nite
Tabbed By: Evan
EMail: aint workin

  intro
e:---------------------------------------------------------------------------|
B:---------------------------------------------------------------------------|
G:---------------------------------------------------------------------------|
D:----4~-----4/6--6~-----2-2---4~-----4/6~--6~-----2-2---4~-----4/6--6~-----2|
A:----4~-----4/6--6~-----2-2---4~-----4/6~--6~-----2-2---4~-----4/6--6~-----2|
E:----2~-----2/4--4~-----0-0---2~-----2/4~--4~-----0-0---2~-----2/4--4~-----0|


                                                                 

                         intro lead fills (1)
e:--------------------|---------16-16---------------------------|
B:--------------------|----------------16-16--------------------|
G:--------------------|----------------------15b--15b~~---------|
D:-2---4~----4/6--6~--|-----------------------------------------|
A:-2---4~----4/6--6~--|-----------------------------------------|
E:-0---2~----2/4--4~--|-----------------------------------------|
                                                      ^dive   fill (2)
e:-------------------|
B:---------------7~~-|
G:--------4--6b~~~---|
D:----4/6------------|
A:-------------------|
E:-------------------|
   verses "Searching for the darkness.."     "Running for the day.."
e:---------------------------------------------------------------------------|
B:---------------------------------------------------------------------------|
G:--------------------------------------------------------------------8/6----|
D:-------------------------------------------------------------------------9-|
A:---------------------------------------------------------------------------|
E:---------4-4-4-4-4-4-4-4-4-4-4-4-4-4-4-4-----------------------------------|
           ^palm mute thru-out           ^etc                              ^                             "Hiding from tomorrow.."
e:---------------------------------------------------------------------------|
B:---------------------------------------------------------------------------|
G:---------------------------------------------------------------------------|
D:9-8----6-6--4-4---------------------9~-----------9~-----------9~-----------|
A:-----------------6-6--2-------------7~-----------7~-----------7~-----------|
E:---------------------------0-0-0-0--0~---0-0-0-0-0~---0-0-0-0-0~---0-0-0-0-|
  ^mute  ^ ^  ^ ^  ^ ^  ^



       "Nothing left to say.."
e:-----------------------------------------------------------|
B:-----------------------------------------------------------|
G:-----------------------------------------------------------|
D:9~-------------------------------------------9--9---11--11-|
A:7~-------------------------------------------7--7---9---9--|
E:0~----4-4-4-4-4-4-4-4-4-4-4-4-4-4-4-4/16/4---0--0----------|
   chorus        "We're creatures of the nite.."
e:---------------------------------------------------------------------------|
B:---------------------------------------------------------------------------|
G:---------------------------------------------------------------------------|
D:---9---9/13---11~------------------------------------6-----------6---------|
A:---7---7/11---9~-------------------------------------6-----------6---------|
E:---------------------------------------------4-4-4-4-4---4-4-4-4-4---4-4-4-|
                         "We're creatures of the nite"
e:---------------------------------------------------------------------------|
B:---------------------------------------------------------------5/4------7/5|
G:--------------------------------------------------------4--6-------6-------|
D:--6-----------9-9--11~--------------------------9~-------------------------|
A:--6-----------7-7--9~---------------------------7~-------------------------|
E:4-4---4-4-4-4-----------------------------------0~-------------------------|
[ Tab from: http://www.guitartabs.cc/tabs/k/kiss/creatures_of_the_nite_tab.html ]
e:---------------------------------------------------------------------------|
B:/4-------------------------------------------------------------------------|
G:--6--4-----------------------13--------------13--------------13------------|
D:-------6---------------------13--------------13--------------13------------|
A:----------2~-----11-11-11-11-----11-11-11-11-----11-11-11-11-----11-11-11-1|
E:---------------------------------------------------------------------------|


                                                                        

                                                          to verses
e:---------------------------------------------------------------------|
B:---------------------------------------------------------------------|
G:--11---------------13--------------13---------------13-----9-----11--|
D:--11---------------13--------------13---------------13-----9-----11--|
A:1-9----11-11-11-11-----11-11-11-11------11-11-11-11--------7-----9---|
E:---------------------------------------------------------0-----x-----|




     "We're creatures of the nite.."
e:---------------------------------------------------------------------------|
B:---------------------------------------------------------------------------|
G:------------------------------------------------------------------13-------|
D:-----------------------------9~-----------------------------------13-------|
A:-----------------------------7~-----4~--6~--7~--------11-11-11-11------11-1|
E:-----------------------------0~-----------------7~-------------------------|

e:---------------------------------------------------------------------------|
B:-----------------------------------------------------12----11-----------12-|
G:--------13---------------13---------------13---------11----11-----------11-|
D:--------13---------------13---------------13-------------------------------|
A:1-11-11------11-11-11-11------11-11-11-11---------9------9-----9-9-9-9-----|
E:---------------------------------------------------------------------------|
                                                    ^mute  ^     ^ ^ ^ ^etc
e:---------------------------------------------------------------------------|
B:--11---9---9--------11----9----------11---9---9---9------12---11---------12|
G:--11---9---9--------11----9----------11---9---8---9------11---11---------11|
D:---------------------------------------------------------------------------|
A:9----9---9----9--9------9----9-9-9-9----9---9---9---9-9-----9----9-9-9-9---|
E:---------------------------------------------------------------------------|


                                           

          repeat
e:----------------|----------|------------|
B:---11----9---9--|----------|------------|
G:---11----9---9--|-7~---9~--|---8~-------|
D:----------------|-7~---9~--|---8~-------|
A:-9----9----9----|-5~---7~--|---6~--6----|
E:----------------|----------|------------|
                                     ^dive    solo
e:------------------------6--7/6---------------------------------------------|
B:------------7-----9b~----------9/7----------------------------12----11-----|
G:---6b~---6b~~----------------------8--6/4----6b/6-4-------11b----11--------|
D:------------------------------------------4---------6----------------------|
A:---------------------------------------------------------------------------|
E:---------------------------------------------------------------------------|





e:----------9--------------------------------------------16-------22b/22-22b~|
B:----9-11b---9--12-11-9----19b~--19b/19-16------------16---19b~-------------|
G:11b---------------------------------------18b~---18b-----------------------|
D:---------------------------------------------------------------------------|
A:---------------------------------------------------------------------------|
E:---------------------------------------------------------------------------|


                                              

        end
e:~--|----------------------------------------|
B:---|-----------5/4-----7/5/4----------------|
G:---|------4--6-----6----------6--4----------|
D:---|--------------------------------6------6|
A:---|-----------------------------------2---6|
E:---|---------------------------------------4|
Comments