Kiss - Comin Home Chords & Tabs

 

Comin Home Chords & Tabs

Kiss Chords & Tabs

Version: 1 Type: Bass Tab 0 ratings
1 star 2 stars 3 stars 4 stars 5 stars
comments

Comin Home Bass Tab

Comin Home by Kiss
Tune down 1/2 step

Gb|----------------------------------------------------------|
Db|------5----5------5---5----------5------------------------|
Ab|-------------------------3-3-3-3---5--0--2--3-4-5---------|
Eb|---3-----3----3-3---3-------------------------------------|
      |--------------2x---------------|

Gb|----------------------------------------------------------|
Db|------5-----------5--------------5------------------------|
Ab|-------------------------3-3-3-3---5----------------------|
Eb|---3-----3-3--3-3---3-3-----------------------------------|
[ Tab from: http://www.guitartabs.cc/tabs/k/kiss/comin_home_btab.html ]
Gb|----------------------------------------------------------|
Db|---3-----3---3---5----------------------------------------|
Ab|-----3-----3---3---5--0--2--3-4-5-------------------------|
Eb|----------------------------------------------------------|

Gb|----------------------------------------------------------|
Db|--------------5------------5--------------5---------------|
Ab|----------------------------------3-3-3-3---5-------------|
Eb|--0--1--2--3-----3-3---3-3---3-3--------------------------|

Gb|----------------------------------------------------------|
Db|-----------------------5----------------------------------|
Ab|------------5--3-3-3-3---5--------------------------------|
Eb|---3--2--0------------------------------------------------|

Gb|----------------------------------------------------------|
Db|-----------------------7----------------------------------|
Ab|---------------5-5-5-5---7--------------------------------|
Eb|---5--4--2--0---------------------------------------------|

Thanks, please rate it after you learn it.
_TheBassist01_
Comments