Kiss - Cold Gin Chords & Tabs

 

Cold Gin Chords & Tabs

Kiss Chords & Tabs

Version: 5 Type: Tab 0 ratings
1 star 2 stars 3 stars 4 stars 5 stars
comments

Cold Gin Tab

Cold Gin by KISS
From the album KISS
--------------------------------------------------------------------

  intro (rhythm 1)
e:---------------------------------------------------------------------------|
B:---------------------------------------------------------------------------|
G:----9---7--7--7--7--7/9--9~----9--9---7--7--7--7--7/9--9~---9---7--7--7--7-|
D:----7---5--4--5--4--5/7--7~----7--7---5--4--5--4--5/7--7~---7---5--4--5--4-|
A:----0--------------------0~----0--0--------------------0~---0--------------|
E:---------------------------------------------------------------------------|

e:---------------------------------------------------------------------------|
B:---------------------------------------------------------------------------|
G:------------------------------------------------------------2~-------------|
D:------------------------------------------------------------2~-------------|
A:------------------------------------------------------------0~-------------|
E:---------------------------------------------------------------------------|
   Guitar 2


e:---------------------------------------------------------------------------|
B:---------------------------------------------------------------------------|
G:-7/9--9~---9--9--7--7--7--7--7/9--9~---9---7--7--7--7--7/9--9~------9--9--7|
D:-5/7--7~---7--7--5--4--5--4--5/7--7~---7---5--4--5--4--5/7--7~------7--7--5|
A:------0~---0--0-------------------0~---0--------------------0~------0--0---|
E:---------------------------------------------------------------------------|

e:---------------------------------------------------------------------------|
B:-------------------------------------------3--2--3--2--3/2----------------3|
G:---------2----2-2----------------------2---2--2--2--2--2/2--2-------2--2--2|
D:---------0----0-2----------------------2---4--2--4--2--4/2--2-------2--2--4|
A:----0-3b---3b---0----------------------0-----------------0--0-------0--0---|
E:---------------------------------------------------------------------------|
   Guitar 2


                       verses "My heaters broke and I'm so tired."
e:---------------------------------------------------------------------------|
B:---------------------------------------------------------------------------|
G:--7--7--7--7/9--9---------------2-2--------------------2-2--------9--7--7--|
D:--4--5--4--5/7--7---------------2-2--------------------2-2--------7--5--4--|
A:----------------0---------------0-0--------------------0-0--------0--------|
E:---------------------------------------------------------------------------|

e:---------------------------------------------------------------------------|
B:--2--3--2--3/2-------------------------------------------------------3--2--|
G:--2--2--2--2/2--2---------------2-2-------------------------------2--2--2--|
D:--2--4--2--4/2--2---------------2-2--------------------5-5--------2--4--2--|
A:----------------0---------------0-0--------------------5-5--------0--------|
E:-------------------------------------------------------3-3-----------------|
   Guitar 2
[ Tab from: http://www.guitartabs.cc/tabs/k/kiss/cold_gin_tab_ver_5.html ]
   repeat          "Ooh its cold gin..."
e:----------------|------------------------------------------------|---------|
B:----------------|------------------------------------------------|---------|
G:7--7--7/9--9----|----------9-9---------9-9----------7--7-----9-9-|--9--9---|
D:5--4--5/7--7----|----------9-9---------9-9----------5--4-----9-9-|--7--7---|
A:-----------0----|----------7-7---------7-7-------------------7-7-|--0--0---|
E:----------------|---------------------------0-0-0-0--------------|---------|

e:---------------------------------------------------------------------------|
B:3--2--3/2------------------------------------------------------------------|
G:2--2--2/2---2--------------------------------------------------------------|
D:4--2--4/2---2--------------------------------------------------------------|
A:------------0--------------------------------------------------------------|
E:---------------------------------------------------------------------------|
   Guitar 2


   guitar 1
e:----------------3~---------------------------------------------------------|
B:----------------3~---------------------------------------------------------|
G:7--7--7--7/7----0~--------------5--5---------------------------------------|
D:5--4--5--4/5----0~------5--5----5--5-----------------------------------5--5|
A:----------------x-------5--5----3--3------3---3-2-3-2----3---3-2-3-----5--5|
E:----------------3~------3--3---------------------------------------1---3--3|


   guitar 1
e:---------------------------------------------------------------------------|
B:---------------------------------------------------------------------------|
G:----5--5--------------------------------5--5-------------------------------|
D:----5--5------------------------5--5----5--5-------------------------------|
A:----3--3-----3232323232323------5--5----3--3-----3---3-2-3-2---3---3-2-3---|
E:----------------------------1---3--3--------------------------------------3|


e:---------------------------------------------------------------------------|
B:---------------------------------------------------------------------------|
G:-------------7--7----------------------------------------------7--7--------|
D:----7--7-----7--7-------------------------------------7--7-----7--7--------|
A:----7--7-----5--5------5---5-4-5-4----5---5-4-5-------7--7-----5--5-----545|
E:----5--5-----------------------------------------3----5--5-----------------|


e:---------------------------------------------------------------------------|
B:---------------------------------------------------------------------------|
G:-------------------------7--7--------------------------------------------7-|
D:-----------------7--7----7--7-----------------------------------7--7-----7-|
A:4545454545-------7--7----5--5-----5---5-4-5-4----5---5-4-5------7--7-----5-|
E:-------------3---5--5---------------------------------------3---5--5-------|


e:---------------------------------------------------------------------------|
B:----------------------------------------10--------10--------------------10-|
G:-7------------------------9--9----9--9--9---9--9--9--9---9--9-----9--9--9--|
D:-7------------------------9--9----9--11-----9--11----9---9--9-----9--11----|
A:-5----5454545454545454----7--7---------------------------7--7--------------|
E:--------------------------0--0---------------------------0--0--------------|


e:-------------------------------------------------------------|
B:-------10-------------------10--------10---------------------|
G:-9--9--9--9---9--9----9--9--9---9--9--9--9----9----7-------2~|
D:-9--11----9---9--9----9--11-----9--11----9----9----7---7---2~|
A:--------------7--7----------------------------7----5---4---0~|
E:--------------0--0----------------------------0--------------|
Comments