Kiss - Christeen Sixteen Chords & Tabs

 

Christeen Sixteen Chords & Tabs

Kiss Chords & Tabs

Version: 1 Type: Bass Tab 0 ratings
1 star 2 stars 3 stars 4 stars 5 stars
comments

Christeen Sixteen Bass Tab

Christeen Sixteen by Kiss
Tune down 1/2 step
[ Tab from: http://www.guitartabs.cc/tabs/k/kiss/christeen_sixteen_btab.html ]
(Intro)
Gb|---------------------------------------------|
Db|---------------------------------------------|
Ab|---------------------------------------------|
Eb|--0--0------0--0-----------------------------|
                                             
Gb|---------------------------------------------|
Db|---------------------------------------------|
Ab|--------------------5--5------5--5-----------|
Eb|--0--0------0--0-----------------------------|
                                                
Gb|---------------------------------------------|
Db|---------------------------------------------|
Ab|--------------------5----5-------------------|
Eb|--0--0----0--0----------------4/-5--5--3--0--|
                                              
Gb|---------------------------------------------|
Db|---------------------------------------------|
Ab|--------------------5--5------5--5-----------|
Eb|--0--0------0--0-----------------------------|
                                                  
Gb|------------------------------------14-------|
Db|-----------------------------7/-14------14\--|
Ab|--------------------5----5-------------------|
Eb|--0--0----0--0-------------------------------|
                                            
Gb|---------------------------------------------|
Db|---------------------------------------------|
Ab|--------------------5--5------5--5-----------|
Eb|--0--0------0--0-----------------------------|
                                              
Gb|---------------------------------------------|
Db|---------------------------------------------|
Ab|--------------------5----4--2--0-------------|
Eb|--0--0----0--0----------------------4--2-----|
                                                
Gb|---------------------------------------------|
Db|--------------2------0----0--------0---------|
Ab|-----------2-----------------2--0---------0--|
Eb|--0--3--4------------------------------------|
                                                  
Gb|---------------------------------------------|
Db|---------------------------------0-----------|
Ab|----0--2--0--3--2--0-------2--3-------3--2---|
Eb|----------------------3----------------------|
                                               
Gb|---------------------------------------------|
Db|--------------2------0----0--------0---------|
Ab|-----------2-----------------2--0---------0--|
Eb|--0--3--4------------------------------------|
                                              
Gb|---------------------------------------------|
Db|-----------0---------------------------------|
Ab|--------------------0------------------------|
Eb|--3------------------------------------------|
                                                 
Gb|---------------------------------------------|
Db|--------------2------0----0--------0---------|
Ab|-----------2-----------------2--0---------0--|
Eb|--0--3--4------------------------------------|
                                                  
Gb|---------------------------------------------|
Db|-------------0-------------------------------|
Ab|-------2--3-------3--2--0--------------------|
Eb|--3------------------------------------------|
                                          
Gb|---------------------------------------------|
Db|---------------------------------------------|
Ab|--2------2--2------2----2--2--------14\------|
Eb|---------------------------------------------|
                                               
Gb|---------------------------------------------|
Db|--------------------2----x--4/6---4----2-----|
Ab|-----------------2---------------------------|
Eb|--0--------3--4------------------------------|
                                           
Gb|---------------------------------------------|
Db|---------------------------------------------|
Ab|--2------2--2------2----2--------------------|
Eb|---------------------------------------------|

Thanks, please rate it after you learn it.
_TheBassist01_
Comments