Kiss - Calling Dr Love Chords & Tabs

 

Calling Dr Love Chords & Tabs

Kiss Chords & Tabs

Version: 3 Type: Tab

Calling Dr Love Tab

   
#----------------------------------PLEASE NOTE---------------------------------#
#This file is the author's own work and represents their interpretation of the #
#song. You may only use this file for private study, scholarship, or research. #
#------------------------------------------------------------------------------##

                                CALLING DR. LOVE
                               As recorded by KISS
                         (From the 1977 Album ALIVE II)

Words and Music by Gene Simmons
Transcribed by Niklas Buchmüller ( ACE_FREHLEY@gmx.net )

Gtr I (Eb Ab Db Gb Bb Eb) - 'Paul'
Gtr II (Eb Ab Db Gb Bb Eb) - 'Ace'

 Intro:
  Q=128
  Em          G5                  D5                A5                  Em
 4/4
  Gtr II
  Q  Q.   E E E   +Q   Q.   E  E  E   +Q   Q.   E E  E    +Q   Q.   E E E
|-0-------0-----|-------------------|-------------------|---------------0--|
|-0-------0-0-3-|-(3)-------3--0--3-|-(3)-------3-0-(2)-|-(2)---------0-0--|
|-x-------x-0-0-|-(0)-------0--0--2-|-(2)-------2-0--2--|-(2)-------2-0-x--|
|-2-------2---0-|-(0)-------0-(0)-0-|-(0)-------0-0--2--|-(2)-------2-0-2--|
|-2-------2---x-|-(x)-------x-------|----------------0--|-(0)-------0---2--|
|-0-------0---3-|-(3)-------3-------|-------------------|---------------0--|


                G5                  D5                A5                   Em
  +Q   Q.   E E E   +Q   Q.   E  E  E   +Q   Q.   E E  E    +Q    Q.   E E E
|-(0)-------0-----|-------------------|-------------------|----------------0-|
|-(0)-------0-0-3-|-(3)-------3--0--3-|-(3)-------3-0-(2)-|-(2)----------0-0-|
|-(x)-------x-0-0-|-(0)-------0--0--2-|-(2)-------2-0--2--|-(2)--------2-0-x-|
|-(2)-------2---0-|-(0)-------0-(0)-0-|-(0)-------0-0--2--|-(2)--------2-0-2-|
|-(2)-------2---x-|-(x)-------x-------|----------------0--|-(0)--------0---2-|
|-(0)-------0---3-|-(3)-------3-------|-------------------|----------------0-|
|
| Gtr I
|  W                 W                   W                   H..           E
|-----------------|-------------------|-------------------|----------------0-|
|-----------------|-------------------|-------------------|----------------0-|
|-----------------|-------------------|-------------------|----------------x-|
|-----------------|-------------------|-------------------|----------------2-|
|-----------------|-------------------|-------------------|----------------2-|
|-----------------|-------------------|-------------------|----------------0-|


                G5                  D5                A5                  Em
  Gtr I
  +Q   Q.   E E E   +Q   Q.   E  E  E   +Q   Q.   E E  E    +Q   Q.   E E E
|-(0)-------0-----|-------------------|-------------------|---------------0-|
|-(0)-------0-0-3-|-(3)-------3--0--3-|-(3)-------3-0-(2)-|-(2)---------0-0-|
|-(x)---------0-0-|-(0)-------0--0--2-|-(2)-------2-0--2--|-(2)-------2-0-x-|
|-(2)-------2---0-|-(0)-------0-(0)-0-|-(0)-------0-0--2--|-(2)-------2-0-2-|
|-(2)-------2---x-|-(x)-------x-------|----------------0--|-(0)-------0---2-|
|-(0)-------0---3-|-(3)-------3-------|-------------------|---------------0-|
|
| Gtr II
| +Q   Q.   E E E   +Q   Q.   E  E  E   +Q   Q.   E E  E    +Q   Q.   E E E
|-(0)-------0-----|-------------------|-------------------|---------------0-|
|-(0)-------0-0-3-|-(3)-------3--0--3-|-(3)-------3-0-(2)-|-(2)---------0-0-|
|-(x)---------0-0-|-(0)-------0--0--2-|-(2)-------2-0--2--|-(2)-------2-0-x-|
|-(2)-------2---0-|-(0)-------0-(0)-0-|-(0)-------0-0--2--|-(2)-------2-0-2-|
|-(2)-------2---x-|-(x)-------x-------|----------------0--|-(0)-------0---2-|
|-(0)-------0---3-|-(3)-------3-------|-------------------|---------------0-|


                G5                  D5                A5                  Em
  +Q   Q.   E E E   +Q   Q.   E  E  E   +Q   Q.   E E  E    +Q   Q.   E E E
|-(0)-------0-----|-------------------|-------------------|---------------0-|
|-(0)-------0-0-3-|-(3)-------3--0--3-|-(3)-------3-0-(2)-|-(2)---------0-0-|
|-(x)-------x-0-0-|-(0)-------0--0--2-|-(2)-------2-0--2--|-(2)-------2-0-x-|
|-(2)-------2---0-|-(0)-------0-(0)-0-|-(0)-------0-0--2--|-(2)-------2-0-2-|
|-(2)-------2---x-|-(x)-------x-------|----------------0--|-(0)-------0---2-|
|-(0)-------0---3-|-(3)-------3-------|-------------------|---------------0-|
|
| +Q   Q.   E E E   +Q   Q.   E  E  E   +Q   Q.   E E  E    +Q   Q.   E E E
|-(0)-------0-----|-------------------|-------------------|---------------0-|
|-(0)-------0-0-3-|-(3)-------3--0--3-|-(3)-------3-0-(2)-|-(2)---------0-0-|
|-(x)-------x-0-0-|-(0)-------0--0--2-|-(2)-------2-0--2--|-(2)-------2-0-x-|
|-(2)-------2---0-|-(0)-------0-(0)-0-|-(0)-------0-0--2--|-(2)-------2-0-2-|
|-(2)-------2---x-|-(x)-------x-------|----------------0--|-(0)-------0---2-|
|-(0)-------0---3-|-(3)-------3-------|-------------------|---------------0-|


 Vers:
                G5                  D5                A5                  Em
  +Q   Q.   E E E   +Q   Q.   E  E  E   +Q   Q.   E E  E    +Q   Q.   E E E
|-(0)-------0-----|-------------------|-------------------|---------------0-|
|-(0)-------0-0-3-|-(3)-------3--0--3-|-(3)-------3-0-(2)-|-(2)---------0-0-|
|-(x)-------x-0-0-|-(0)-------0--0--2-|-(2)-------2-0--2--|-(2)-------2-0-x-|
|-(2)-------2---0-|-(0)-------0-(0)-0-|-(0)-------0-0--2--|-(2)-------2-0-2-|
|-(2)-------2---x-|-(x)-------x-------|----------------0--|-(0)-------0---2-|
|-(0)-------0---3-|-(3)-------3-------|-------------------|---------------0-|
|
| +Q   Q.   E E E   +Q   Q.   E  E  E   +Q   Q.   E E  E    +Q   Q.   E E E
|-(0)-------0-----|-------------------|-------------------|---------------0-|
|-(0)-------0-0-3-|-(3)-------3--0--3-|-(3)-------3-0-(2)-|-(2)---------0-0-|
|-(x)-------x-0-0-|-(0)-------0--0--2-|-(2)-------2-0--2--|-(2)-------2-0-x-|
|-(2)-------2---0-|-(0)-------0-(0)-0-|-(0)-------0-0--2--|-(2)-------2-0-2-|
|-(2)-------2---x-|-(x)-------x-------|----------------0--|-(0)-------0---2-|
|-(0)-------0---3-|-(3)-------3-------|-------------------|---------------0-|


                                                      Refrain:
                G5                  Em7         D5     C5
  +Q   Q.   E E E   +Q   Q.   E  Q     a  H     H      E E E E E E E E
|-(0)-------0-----|------------------|---------------|------------------|
|-(0)-------0-0-3-|-(3)-------3--0---|-7h=8----------|------------------|
|-(x)-------x-0-0-|-(0)-------0--0---|-7-(7)----7----|-5-5---5-5---5-5--|
|-(2)-------2---0-|-(0)-------0-(0)--|-7h=9-----7----|-5-5---5-5---5-5--|
|-(2)-------2---x-|-(x)-------x------|----------5----|-3-3---3-3---3-3--|
|-(0)-------0---3-|-(3)-------3------|---------------|------------------|
|
| +Q   Q.   E E E   +Q   Q.   E  Q     a  H     H      E E E E E E E E
|-(0)-------0-----|------------------|---------------|------------------|
|-(0)-------0-0-3-|-(3)-------3--0---|-7h=8----------|------------------|
|-(x)-------x-0-0-|-(0)-------0--0---|-7-(7)----7----|-5-5---5-5---5-5--|
|-(2)-------2---0-|-(0)-------0-(0)--|-7h=9-----7----|-5-5---5-5---5-5--|
|-(2)-------2---x-|-(x)-------x------|----------5----|-3-3---3-3---3-3--|
|-(0)-------0---3-|-(3)-------3------|---------------|------------------|


        D5            E5            D5                    E5                D5
  Gtr II
  E E E E E E  Q      Q   E Q   E E E   +E  E E +E  E E E E   +Q   E Q  E E E
|-------------------|-----------------|---------------------|-----------------|
|-------------------|-----------------|---------------------|-----------------|
|---5---7-7---------|-----------------|---------------------|-----------------|
|---5---7-7---------|-----------------|---------------------|-----------------|
|---3---5-5---------|-7-----------7-5-|-(5)-5-------------7-|-(7)---------7-5-|
|-------------12\---|-----0-----0-----|-------7-(7)-5-3-0---|------0----0-----|
|
| Gtr I
| E E E E E E  E  E   Q.    Q.    E E   +Q    H         E E   +Q   H      E E
|-------------------|-----------------|---------------------|-----------------|
|-------------------|-----------------|---------------------|-----------------|
|---5---7-7-------7-|-9-----------9-7-|-(7)-------------7-9-|-(9)---------9-7-|
|---5---7-7-------7-|-9-----------9-7-|-(7)-------------7-9-|-(9)---------9-7-|
|---3---5-5-------5-|-7-----------7-5-|-(5)-------------5-7-|-(7)---------7-5-|
|-------------------|-----------------|---------------------|-----------------|


                    E5                C5          D5
  Gtr II
  +E  E E +E  E E E E   +Q   E Q  E E E   +E  E E E +E  E E +E
|---------------------|-----------------|-----------------------|
|---------------------|-----------------|-----------------------|
|---------------------|-----------------|-----------------------|
|---------------------|-----------------|-----------------------|
|-(5)-5-------------7-|-(7)---------7---|---------5-(5)---5-(5)-|
|-------7-(7)-5-3-0---|------0----0---8-|-(8)-7-5-------7-------|
|
| Gtr I
| +Q    H         E E   +Q   H      E E   +Q.     H          E
|---------------------|-----------------|-----------------------|
|---------------------|-----------------|-----------------------|
|-(7)-------------7-9-|-(9)---------9-5-|-(5)-----7-------------|
|-(7)-------------7-9-|-(9)---------9-5-|-(5)-----7-------------|
|-(5)-------------5-7-|-(7)---------7-3-|-(3)-----5-------------|
|---------------------|-----------------|-----------------------|


 Interlude:
  Em          G5                  D5                A5                   Em
  Gtr II
  Q  Q.   E E E   +Q   Q.   E  E  E   +Q   Q.   E E  E    +Q    Q.   E E E
|-0-------0-0---|--------------0----|-------------------|----------------0-|
|-0-------0-0-3-|-(3)-------3--0--3-|-(3)-------3-0-(2)-|-(2)----------0-0-|
|-x-------x-0-0-|-(0)-------0--0--2-|-(2)-------2-0--2--|-(2)--------2-0-x-|
|-2-------2---0-|-(0)-------0-(0)-0-|-(0)-------0-0--2--|-(2)--------2-0-2-|
|-2-------2---x-|-(x)-------x-------|----------------0--|-(0)--------0---2-|
|-0-------0---3-|-(3)-------3-------|-------------------|----------------0-|
|
| Gtr I
| W                W                   W                   H..           E
|---------------|-------------------|-------------------|----------------0-|
|---------------|-------------------|-------------------|----------------0-|
|---------------|-------------------|-------------------|----------------x-|
|---------------|-------------------|-------------------|----------------2-|
|---------------|-------------------|-------------------|----------------2-|
|---------------|-------------------|-------------------|----------------0-|


   Verse:
                  G5                  D5
    +Q   Q.   E E E   +Q   Q.   E  E  E
||--(0)-------0-0---|--------------0----|
||o-(0)-------0-0-3-|-(3)-------3--0--3-|
||--(x)-------x-0-0-|-(0)-------0--0--2-|
||--(2)-------2---0-|-(0)-------0-(0)-0-|
||o-(2)-------2---x-|-(x)-------x-------|
||--(0)-------0---3-|-(3)-------3-------|
|
|   +Q   Q.   E E E   +Q   Q.   E  E  E
||--(0)-------0-0---|--------------0----|
||o-(0)-------0-0-3-|-(3)-------3--0--3-|
||--(x)-------x-0-0-|-(0)-------0--0--2-|
||--(2)-------2---0-|-(0)-------0-(0)-0-|
||o-(2)-------2---x-|-(x)-------x-------|
||--(0)-------0---3-|-(3)-------3-------|


                      1.
                A5                  Em
  +Q   Q.   E E  E    +Q   Q.   E E E
|-------------------|---------------0---||
|-(3)-------3-0-(2)-|-(2)---------0-0--o||
|-(2)-------2-0--2--|-(2)-------2-0-x---||
|-(0)-------0-0--2--|-(2)-------2-0-2---||
|----------------0--|-(0)-------0---2--o||
|-------------------|---------------0---||
|
| +Q   Q.   E E  E    +Q   Q.   E E E
|-------------------|---------------0---||
|-(3)-------3-0-(2)-|-(2)---------0-0--o||
|-(2)-------2-0--2--|-(2)-------2-0-x---||
|-(0)-------0-0--2--|-(2)-------2-0-2---||
|----------------0--|-(0)-------0---2--o||
|-------------------|---------------0---||


  2.
  A5                   Em                 G5
  Gtrs I, II
  Q  Q.   E E E   +Q    Q.   E E E   +Q    Q.   E E E
|---------------|-------0----------|-------3----------|
|---------------|-------0----------|-------3----------|
|-2-------------|------------------|-------0----------|
|-2-------------|------------------|-------0--------0-|
|-0-------------|------------------|------------2-3---|
|---------3-2-0-|-(0)--(0)---0-2-3-|-(3)--(3)---------|


       D5                 A5
  +Q    Q.   E E E   +Q    Q.   E E E
|------------------|------------------|
|-------3----------|-------2----------|
|-------2----------|-------2----------|
|-(0)--(0)---------|-------2----------|
|------------3-2-0-|-(0)--(0)---------|
|------------------|------------3-2-0-|


                                                      Refrain:
       Em                 G5           Em7      D5     C5
  +Q    Q.   E E E   +Q    Q.   E Q    a  H     H      E E E E E E E E
|-------0----------|-------3---------|---------------|------------------|
|-------0----------|-------3---------|-7h=8-----7----|------------------|
|------------------|-------0---------|-7-(7)----7----|-5-5---5-5---5-5--|
|------------------|-------0---------|-7h=9-----7----|-5-5---5-5---5-5--|
|------------------|------------2-3--|---------------|-3-3---3-3---3-3--|
|-(0)--(0)---0-2-3-|-(3)--(3)--------|---------------|------------------|


        D5    N.C.    E5            D5                    E5                D5
  Gtr II
  E E E E E E  Q      Q   E Q   E E E   +E  E E +E  E E E E   +Q   E Q  E E E
|-------------------|-----------------|---------------------|-----------------|
|-------------------|-----------------|---------------------|-----------------|
|---5---7-7---------|-----------------|---------------------|-----------------|
|---5---7-7---------|-----------------|---------------------|-----------------|
|---3---5-5---------|-7-----------7-5-|-(5)-5-------------7-|-(7)---------7-5-|
|-------------12\---|-----0-----0-----|-------7-(7)-5-3-0---|------0----0-----|
|
| Gtr I
| E E E E E E  E  E   Q.    Q.    E E   +Q    H         E E   +Q   H      E E
|-------------------|-----------------|---------------------|-----------------|
|-------------------|-----------------|---------------------|-----------------|
|---5---7-7-------7-|-9-----------9-7-|-(7)-------------7-9-|-(9)---------9-7-|
|---5---7-7-------7-|-9-----------9-7-|-(7)-------------7-9-|-(9)---------9-7-|
|---3---5-5-------5-|-7-----------7-5-|-(5)-------------5-7-|-(7)---------7-5-|
|-------------------|-----------------|---------------------|-----------------|


                    E5                C5          D5              E5
                                                                    ~
  +E  E E +E  E E E E   +Q   E Q  E E E   +E  E E E +E  E E +E    a W
|---------------------|-----------------|-----------------------|--------|
|---------------------|-----------------|-----------------------|--------|
|---------------------|-----------------|-----------------------|--------|
|---------------------|-----------------|-----------------------|--------|
|-(5)-5-------------7-|-(7)---------7---|---------5-(5)---5-(5)-|-5h7----|
|-------7-(7)-5-3-0---|------0----0---8-|-(8)-7-5-------7-------|--------|
|
| +Q    H         E E   +Q   H      E E   +Q.     H          E      W
|---------------------|-----------------|-----------------------|--------|
|---------------------|-----------------|-----------------------|--------|
|-(7)-------------7-9-|-(9)---------9-5-|-(5)-----7-------------|---9----|
|-(7)-------------7-9-|-(9)---------9-5-|-(5)-----7-------------|---9----|
|-(5)-------------5-7-|-(7)---------7-3-|-(3)-----5-------------|---7----|
|---------------------|-----------------|-----------------------|--------|


                                         D5  E5            D5
                >
   ~~~~~~~~~~~~~~~~~~~~~~~~~~~~~
  +W           +W           +H.       Q      Q   E Q   E E E
|------------|------------|----------------|-----------------|
|------------|------------|----------------|-----------------|
|------------|------------|----------------|-----------------|
|------------|------------|----------------|-----------------|
|-(7)--------|-(7)--------|-(7)------------|-7-----------7-5-|
|------------|------------|----------12\---|-----0-----0-----|
|
|               >
| +W           +W           +H.       E  E   Q.    Q.    E E
|------------|------------|----------------|-----------------|
|------------|------------|----------------|-----------------|
|-(9)--------|-(9)--------|-(9)----------7-|-9-----------9-7-|
|-(9)--------|-(9)--------|-(9)----------7-|-9-----------9-7-|
|-(7)--------|-(7)--------|-(7)----------5-|-7-----------7-5-|
|------------|------------|----------------|-----------------|


                    E5                D5                    E5
  +E  E E +E  E E E E   +Q   E Q  E E E   +E  E E +E  E E E E
|---------------------|-----------------|---------------------|
|---------------------|-----------------|---------------------|
|---------------------|-----------------|---------------------|
|---------------------|-----------------|---------------------|
|-(5)-5-------------7-|-(7)---------7-5-|-(5)-5-------------7-|
|-------7-(7)-5-3-0---|------0----0-----|-------7-(7)-5-3-0---|
|
| +Q    H         E E   +Q   H      E E   +Q    H         E E
|---------------------|-----------------|---------------------|
|---------------------|-----------------|---------------------|
|-(7)-------------7-9-|-(9)---------9-7-|-(7)-------------7-9-|
|-(7)-------------7-9-|-(9)---------9-7-|-(7)-------------7-9-|
|-(5)-------------5-7-|-(7)---------7-5-|-(5)-------------5-7-|
|---------------------|-----------------|---------------------|

[ Tab from: http://www.guitartabs.cc/tabs/k/kiss/calling_dr_love_tab_ver_3.html ]
                C5          D5
  +Q   E Q  E E E   +E  E E E +E  E E +E
|-----------------|-----------------------|
|-----------------|-----------------------|
|-----------------|-----------------------|
|-----------------|-----------------------|
|-(7)---------7---|---------5-(5)---5-(5)-|
|------0----0---8-|-(8)-7-5-------7-------|
|
| +Q   H      E E   +Q.     H          E
|-----------------|-----------------------|
|-----------------|-----------------------|
|-(9)---------9-5-|-(5)-----7-------------|
|-(9)---------9-5-|-(5)-----7-------------|
|-(7)---------7-3-|-(3)-----5-------------|
|-----------------|--------------------0--|


 Solo:
           Em                          G5
  Gtr II
  a  Q   a  Q   a Q   a Q     a  Q   a  Q   a Q   a Q
|---------------------------|---------------------------|
|---------------------------|---------------------------|
|---------------------------|---------------------------|
|---------------------------|---------------------------|
|-5h=7---5h=7---5h7---5h7---|-5h=7---5h=7---5h7---5h7---|
|---------------------------|---------------------------|
|
| Gtr I
|   +Q      Q.      E   E E     +Q      Q.      E   E E
|-----------0---------------|-----------3---------------|
|-----------0---------------|-----------3---------------|
|---------------------------|-----------0---------------|
|---------------------------|-----------0-------------0-|
|---------------------------|-------------------2---3---|
|---(0)----(0)------0---2-3-|---(3)----(3)--------------|


            D5
   S  S S S  S  S S S S S S S S S S S
|---------------------------------------|
|---------------------------------------|
|---------------------------------------|
|---------------------------------------|
|--5h=7p5p0h=7p=5p0h7p5p0h7p5p0h7p5p0---|
|---------------------------------------|
|
| +Q         Q.           E   E   E
|---------------------------------------|
|------------3--------------------------|
|------------2--------------------------|
|-(0)-------(0)-------------------------|
|-------------------------3---2---0-----|
|---------------------------------------|


          A5                   Em
   S  S E  E  E E E    +Q      +H        +Q    +Q
|----------------------------|-----------------------|
|----------------------------|-----------------------|
|----------------------------|-----------------------|
|----------------------------|-----------------------|
|--7p=5p0--------------------|-----------------------|
|----------7--6-5-3b6==(3)---|-(3)-------(3)---(3)r==|
|
| +Q       Q.     E     E  E    Q    Q.      E  E  E
|----------------------------|-------0---------------|
|----------2-----------------|-------0---------------|
|----------2-----------------|-----------------------|
|----------2-----------------|-----------------------|
|-(0)-----(0)----------------|-----------------------|
|-----------------3-----2--0-|--0---(0)------0--2--3-|


       G5
  +Q   +Q   E  E      +Q
|-----------------------------|
|-----------------------------|
|-------------14b16==(14)r----|
|-----------------------------|
|-----------------------------|
|-(3)--(3)--------------------|
|
| +Q    Q.     E       E   E
|-------3---------------------|
|-------3---------------------|
|-------0---------------------|
|-------0------------------0--|
|--------------2-------3------|
|-(3)--(3)--------------------|


  D5
      |--3--|     |--3---|        |--3--|
   S  S  S  S  S  S   S  S  S  S  S  S  S  S  S  S  S     S  S
|-----------------------------------------------------------12-|
|--------------------------------------------------------12----|
|-14-15p14p12-14-15p=14p12----12-14-12h14p12----12-14b16-------|
|--------------------------14----------------14----------------|
|--------------------------------------------------------------|
|--------------------------------------------------------------|
|
|  Q              Q.                       E     E        E
|--------------------------------------------------------------|
|-----------------3--------------------------------------------|
|-----------------2--------------------------------------------|
|--0-------------(0)-------------------------------------------|
|------------------------------------------3-----2--------0----|
|--------------------------------------------------------------|


  A5
       |--3--|         |--3--|           |--3--|
   S   S  S  S  S  S   e  e  e  s  s  S  S  S  S  S  S
|---------------------15-14-12-------------------------|
|-15--12h15p12----12-----------15-12-15-12h15p12----12-|
|--------------14--------------------------------14----|
|------------------------------------------------------|
|------------------------------------------------------|
|------------------------------------------------------|
|
| +Q               Q.              E     E        E
|------------------------------------------------------|
|------------------2-----------------------------------|
|------------------2-----------------------------------|
|------------------2-----------------------------------|
|-(0)-------------(0)----------------------------------|
|----------------------------------3-----2--------0----|


  Em
                                    ~~~~~~~
                           |--3--|
   Q       +Q    +E   +E   S  S  S  E
|-15b19===(15)--(15)r(15)-12h15p12--------|
|----------------------------------15b17==|
|-----------------------------------------|
|-----------------------------------------|
|-----------------------------------------|
|-----------------------------------------|
|
| +Q        Q.         E   E        E
|-----------0-----------------------------|
|-----------0-----------------------------|
|-----------------------------------------|
|-----------------------------------------|
|-----------------------------------------|
|-(0)------(0)---------0---2--------3-----|


  G5                             D5
 ~~~~~~~
                 |--3--|
   +H         E  S  S  S  E  E    Q        E    E  +Q     E  E
|------------------------------|----------15--(15)-------------|
|-(15)r---------12h15p12----12-|-------------------------------|
|------------------------14----|-14b16===(14)--14r(14)---14-12-|
|------------------------------|-------------------------------|
|------------------------------|-------------------------------|
|------------------------------|-------------------------------|
|
|  +Q     Q.     E        E  E   +Q        Q.          E  E  E
|---------3--------------------|-------------------------------|
|---------3--------------------|-----------3-------------------|
|---------0--------------------|-----------2-------------------|
|---------0------------------0-|-(0)------(0)------------------|
|----------------2--------3----|-----------------------3--2--0-|
|--(3)---(3)-------------------|-------------------------------|


  A5
   E     +S   S  e   S  S  S   S  S  S  +E   E
|----------------------------------------------|
|----------------------------------------------|
|-14b16r(14)p12-14--12h14p12\-11h12p11-(11)----|
|-------------------------------------------12-|
|----------------------------------------------|
|----------------------------------------------|
|
| +Q             Q.               E      E   E
|----------------------------------------------|
|----------------2-----------------------------|
|----------------2-----------------------------|
|----------------2-----------------------------|
|-(0)-----------(0)----------------------------|
|---------------------------------3------2---0-|


     Em                 G5
      ~~~~~~~~~~~~~~~~~~~~~~~
   a  W                  +H        E  E  E a E
|---------------------|------------------------|
|---------------------|--------------12\---3s5-|
|---------------------|--------------12\-------|
|-12s14---------------|-(14)---------12\-------|
|---------------------|------------------------|
|---------------------|------------------------|
|
|    +Q    Q.   E E E    +Q    Q.     E  Q
|----------0----------|--------3---------------|
|----------0----------|--------3---------------|
|---------------------|--------0---------------|
|---------------------|--------0---------------|
|---------------------|---------------2--3-----|
|----(0)--(0)---0-2-3-|--(3)--(3)--------------|


  G5          D5            C5
    |-3-|     |-3-|
  E S S S E E S S S E E E   Q      +E  +E  +E     +E  +E     +E
|-------------------------|--------------------------------------|
|-3-3h5p3-----------------|--------------------------------------|
|---------4-2-4p2p0---0---|-2b4====(2)-(2)r(2)b4==(2)r(2)b4==(2)r|
|-------------------2---2-|--------------------------------------|
|-------------------------|--------------------------------------|
|-------------------------|--------------------------------------|
|
| H           H             E    E  E   E   E      E   E      E
|-3-----------------------|--------------------------------------|
|-3-----------3-----------|--------------------------------------|
|-0-----------2-----------|-5----5------5---5----------5------5--|
|-0-----------0-----------|-5----5------5---5----------5------5--|
|-------------------------|-3----3------3---3----------3------3--|
|-------------------------|--------------------------------------|


                            D5                         N.C.
                                            ~~~~~~~~~~~
  +E     +S  +S     +S  +S  +S     +S  +S  +S  +S  +S  Q
|----------------------------------------------------------|
|----------------------------------------------------------|
|-(2)b4==(2)r(2)b4==(2)-(2)r(2)b4==(2)-(2)r(2)-(2)-(2)-----|
|----------------------------------------------------------|
|----------------------------------------------------------|
|------------------------------------------------------0---|
|
|  E      E          E       E          E       Q        E
|----------------------------------------------------------|
|----------------------------------------------------------|
|---------5------------------7----------7----------------7-|
|---------5------------------7----------7----------------7-|
|---------3------------------5----------5----------------5-|
|----------------------------------------------------------|


 Refrain:
  E5            D5                    E5                D5
  Gtr II
  Q   E Q   E E E   +E  E E +E  E E E E   +Q   E Q  E E E
|-----------------|---------------------|-----------------|
|-----------------|---------------------|-----------------|
|-----------------|---------------------|-----------------|
|-----------------|---------------------|-----------------|
|-7-----------7-5-|-(5)-5-------------7-|-(7)---------7-5-|
|-----0-----0-----|-------7-(7)-5-3-0---|------0----0-----|
|
| Gtr I
| Q.    Q.    E E   +Q    H         E E   +Q   H      E E
|-----------------|---------------------|-----------------|
|-----------------|---------------------|-----------------|
|-9-----------9-7-|-(7)-------------7-9-|-(9)---------9-7-|
|-9-----------9-7-|-(7)-------------7-9-|-(9)---------9-7-|
|-7-----------7-5-|-(5)-------------5-7-|-(7)---------7-5-|
|-----------------|---------------------|-----------------|


                    E5                C5          D5
  +E  E E +E  E E E E   +Q   E Q  E E E   +E  E E E +E  E E +E
|---------------------|-----------------|------------------------|
|---------------------|-----------------|------------------------|
|---------------------|-----------------|------------------------|
|---------------------|-----------------|------------------------|
|-(5)-5-------------7-|-(7)---------7---|---------5-(5)---5-(5)--|
|-------7-(7)-5-3-0---|------0----0---8-|-(8)-7-5-------7--------|
|
| +Q    H         E E   +Q   H      E E   +Q.     H          E
|---------------------|-----------------|------------------------|
|---------------------|-----------------|------------------------|
|-(7)-------------7-9-|-(9)---------9-5-|-(5)-----7--------------|
|-(7)-------------7-9-|-(9)---------9-5-|-(5)-----7--------------|
|-(5)-------------5-7-|-(7)---------7-3-|-(3)-----5--------------|
|---------------------|-----------------|------------------------|


  N.E5                      D5  E5            D5                    E5
    ~~~~~~~~~~~~~~~
  a W          +H.       Q      Q   E Q   E E E   +E  E E +E  E E E E
|------------|----------------|-----------------|----------------------|
|------------|----------------|-----------------|----------------------|
|------------|----------------|-----------------|----------------------|
|------------|----------------|-----------------|----------------------|
|-5h7--------|-(7)------------|-7-----------7-5-|-(5)-5-------------7--|
|------------|----------12\---|-----0-----0-----|-------7-(7)-5-3-0----|
|
|   W          +H.       E  E   Q.    Q.    E E   +Q    H         E E
|------------|----------------|-----------------|----------------------|
|------------|----------------|-----------------|----------------------|
|---9--------|-(9)----------7-|-9-----------9-7-|-(7)-------------7-9--|
|---9--------|-(9)----------7-|-9-----------9-7-|-(7)-------------7-9--|
|---7--------|-(7)----------5-|-7-----------7-5-|-(5)-------------5-7--|
|------------|----------------|-----------------|----------------------|


  N.C.          D5                    E5
   Q   E Q  E E E   +E  E E +E  E E E E
|-----------------|---------------------|
|-----------------|---------------------|
|-----------------|---------------------|
|-----------------|---------------------|
|--7----------7-5-|-(5)-5-------------7-|
|------0----0-----|-------7-(7)-5-3-0---|
|
| +Q   H      E E   +Q    H         E E
|-----------------|---------------------|
|-----------------|---------------------|
|-(9)---------9-7-|-(7)-------------7-9-|
|-(9)---------9-7-|-(7)-------------7-9-|
|-(7)---------7-5-|-(5)-------------5-7-|
|-----------------|---------------------|


                C5          D5
  +Q   E Q  E E E   +E  E E E +E  E E +E
|-----------------|-----------------------|
|-----------------|-----------------------|
|-----------------|-----------------------|
|-----------------|-----------------------|
|-(7)---------7---|---------5-(5)---5-(5)-|
|------0----0---8-|-(8)-7-5-------7-------|
|
| +Q   H      E E   +Q.     H          E
|-----------------|-----------------------|
|-----------------|-----------------------|
|-(9)---------9-5-|-(5)-----7-------------|
|-(9)---------9-5-|-(5)-----7-------------|
|-(7)---------7-3-|-(3)-----5-------------|
|-----------------|-----------------------|


  E5                                          D5
    ~
  a W            E      +E   +E   +E   Q   Q
|------------|----------------------------------|
|------------|----------------------------------|
|------------|----------------------------------|
|------------|----------------------------------|
|-5h7--------|----------------------------------|
|------------|-/17b20==(17)-(17)r(17)\----12\---|
|
|   W           +H.                        E  E
|------------|----------------------------------|
|------------|----------------------------------|
|---9--------|--(9)---------------------------7-|
|---9--------|--(9)---------------------------7-|
|---7--------|--(7)---------------------------5-|
|------------|----------------------------------|


  E5            D5                    E5
  Q   E Q   E E E   +E  E E +E  E E E E
|-----------------|----------------------|
|-----------------|----------------------|
|-----------------|----------------------|
|-----------------|----------------------|
|-7-----------7-5-|-(5)-5-------------7--|
|-----0-----0-----|-------7-(7)-5-3-0----|
|
| Q.    Q.    E E   +Q    H         E E
|-----------------|----------------------|
|-----------------|----------------------|
|-9-----------9-7-|-(7)-------------7-9--|
|-9-----------9-7-|-(7)-------------7-9--|
|-7-----------7-5-|-(5)-------------5-7--|
|-----------------|----------------------|


  N.C.          D5                    E5
  +Q   E Q  E E E   +E  E E +E  E E E E
|-----------------|---------------------|
|-----------------|---------------------|
|-----------------|---------------------|
|-----------------|---------------------|
|-(7)---------7-5-|-(5)-5-------------7-|
|------0----0-----|-------7-(7)-5-3-0---|
|
| +Q   H      E E   +Q    H         E E
|-----------------|---------------------|
|-----------------|---------------------|
|-(9)---------9-7-|-(7)-------------7-9-|
|-(9)---------9-7-|-(7)-------------7-9-|
|-(7)---------7-5-|-(5)-------------5-7-|
|-----------------|---------------------|


                C5          D5
  +Q   E Q  E E E   +E  E E E +E  E E +E
|-----------------|-----------------------|
|-----------------|-----------------------|
|-----------------|-----------------------|
|-----------------|-----------------------|
|-(7)---------7---|---------5-(5)---5-(5)-|
|------0----0---8-|-(8)-7-5-------7-------|
|
| +Q   H      E E   +Q.     H          E
|-----------------|-----------------------|
|-----------------|-----------------------|
|-(9)---------9-5-|-(5)-----7-------------|
|-(9)---------9-5-|-(5)-----7-------------|
|-(7)---------7-3-|-(3)-----5-------------|
|-----------------|-----------------------|


 End:
  E5
  W          +W
|----------|--------|
|----------|--------|
|-9--------|-(9)----|
|-9--------|-(9)----|
|-7--------|-(7)----|
|-0--------|-(0)----|


  E5
  +W           +Q   H.        Q  H.
|------------|--------------|----------*|
|------------|--------------|----------*|
|-(9)--------|-(9)----------|-9--------*|
|-(9)--------|-(9)----------|-9--------*|
|-(7)--------|-(7)----------|-7--------*|
|-(0)--------|-(0)----------|-0--------*|


Duration Legend
---------------
W - whole; H - half; Q - quarter; E - 8th; S - 16th; T - 32nd; X - 64th; a - acciaccatura
+ - note tied to previous; . - note dotted; .. - note double dotted
Uncapitalized letters represent notes that are staccato (1/2 duration)
Irregular groupings are notated above the duration line
Duration letters will always appear directly above the note/fret number it represents the
duration for.  Duration letters with no fret number below them represent rests.  Multi-
bar rests are notated in the form Wxn, where n is the number of bars to rest for.  Low
melody durations appear below the staff

Tablature Legend
----------------
 h   - hammer-on
 p   - pull-off
 b   - bend
 pb  - pre-bend
 r   - bend release (if no number after the r, then release immediately)
 /\  - slide into or out of (from/to "nowhere")
 s   - legato slide
 S   - shift slide
  - natural harmonic
[n]  - artificial harmonic
n(n) - tapped harmonic
 ~   - vibrato
 tr  - trill
 T   - tap
 TP  - trem. picking
 PM  - palm muting
\n/  - tremolo bar dip; n = amount to dip
 \n  - tremolo bar down
 n/  - tremolo bar up
/n\  - tremolo bar inverted dip
 =   - hold bend; also acts as connecting device for hammers/pulls
 <>  - volume swell (louder/softer)
 x   - on rhythm slash represents muted slash
 o   - on rhythm slash represents single note slash

Misc Legend
-----------
 |  - bar
||  - double bar
||o - repeat start
o|| - repeat end
*|  - double bar (ending)
 :  - bar (freetime)
 $  - Segno
 &  - Coda
Tempo markers -  = BPM(8/16=s8/s16), where s8 = swing 8ths, s16 = swing 16ths