Kiss - Calling Doctor Love Chords & Tabs

 

Calling Doctor Love Chords & Tabs

Kiss Chords & Tabs

Version: 1 Type: Tab 2 ratings
1 star 2 stars 3 stars 4 stars 5 stars
comments

Calling Doctor Love Tab

Artist: Kiss
Song: Calling Dr. Love (From the album Rock and Roll Over)
Tabbed by: John Leadman





     intro                               verses                     repeat
e:---0--------3--------2-----------------0----0---3----3---2-----2-----------|
B:---0--------3--------3-----------------0----0---3----3---3-----3-----------|
G:---1--------0--------2--------2--------1----1-0-0----0-0-2-----2-0-2---2-0-|
D:---2--------0--------0--------2--------2----2-0-0----0-0-0-----0-0-2---2-0-|
A:---2----x-x-x----x-x-0----x-x-0----x-x-2----2---x----x---0-----0---0---0---|
E:---0----x-x-3----x-x------x-x------x-x-0----0---3----3---------------------|



                        "Don't you know....."                           "They
e:0--}--0---3---3------------------------------------------------------------|
B:0--}--0---3---3-------8----------------------------------------------------|
G:1--}--1-0-0---0-0-----7---7----5--5----5--5----5--5----5----7--7-----------|
D:2--}--2-0-0---0-0-----5---7----5--5----5--5----5--5----5----7--7---------9-|
A:2--}--2---x---x-----------5----3--3----3--3----3--3----3----5--5---------7-|
E:0--}--0---3---3----------------------------------------------------------0-|



   call me.."                                                   to 2nd verse
e:---------------------------------------------------------------------------|
B:---------3-----3-3---------------3----3-3----------------------------------|
G:---------2-----2-0---------------2----2-0----------------------------------|
D:---------0-----0-0----9----------0----0-0----9--------------------------9--|
A:----------------------7----------------------7-----------3-2-0---5-3-0--7~-|
E:-0----0---------------0--0----0--------------0--0-----0-----------------0--|



[ Tab from: http://www.guitartabs.cc/tabs/k/kiss/calling_doctor_love_tab.html ]
    solo
e:|--------------------------------------------------------------------------|
B:|--------------------------------------------------------------------------|
G:|--------------------------------------------------------------------------|
D:|--------------------------------------------------------------------------|
A:|---5/7--5/7--5/7--5/7--5/7--5/7--5/7--7/5/0-7/5/0-7/5/0-7/5/0-7/5/0-------|
E:|--------------------------------------------------------------------7-6-5-|




e:---------------------------------------------------------12---------12-----|
B:------------------------------------12---------------------15/12-------15/1|
G:-------14~--14/12/14--12/14/12----14---14/12/14/12----14b--------14b-------|
D:------------------------------14------------------14-----------------------|
A:---------------------------------------------------------------------------|
E:3b~~-----------------------------------------------------------------------|





e:--------------------------17b(20)--------------------------15--------------|
B:2-----15--12/15/12---12-----------17/15-15b---15--12-----------------------|
G:--14b-------------14b---------------------------------14b~~~~~14--14-12--14|
D:---------------------------------------------------------------------------|
A:---------------------------------------------------------------------------|
E:---------------------------------------------------------------------------|




e:--------------------------------------------------------------------------|
B:--------------------------------------------------------------------------|
G:b/14-12--12---11/12/11/12/11-------------7b-------------------------------|
D:-------14--------------------12-14b~~-------9--7/9/7/5--7--5/7/5--5--7b~~~|
A:----------------------------------------------------------------7---------|
E:--------------------------------------------------------------------------|




Comments