Kiss - Baby Driver Chords & Tabs

 

Baby Driver Chords & Tabs

Kiss Chords & Tabs

Version: 1 Type: Bass Tab 0 ratings
1 star 2 stars 3 stars 4 stars 5 stars
comments

Baby Driver Bass Tab

Baby Driver by Kiss
Tune down 1/2 step

Gb|---------------------------------------------|
Db|---------------------------------------------|
Ab|---------------------------------------------|
Eb|----3----3----3----3----3----3----3----3-----|
                                             
Gb|---------------------------------------------|
Db|---------------------------------------------|
Ab|--------------------------------3----1-------|
Eb|----3----3----3----3----3----3---------------|
                                                
Gb|---------------------------------------------|
Db|---------------------------------------------|
Ab|------------1--------------------1-----------|
Eb|----3----3-------1--3----3----3-------1--3---|
                                                                            
Gb|---------------------------------------------|
Db|---------------------------------3h5---3h5---|
Ab|------------1--------------------------------|
Eb|----3----3-------1--3----3----3--------------|
                                                 
Gb|---------------------------------------------|
Db|---------------------------------------------|
Ab|-------------1--------------------1----------|
Eb|--3--3----3-------1--3----3----3-------1--3--|
[ Tab from: http://www.guitartabs.cc/tabs/k/kiss/baby_driver_btab.html ]
Gb|---------------------------------------------|
Db|--------------------------------------3/5----|
Ab|------------1--------------------1-----------|
Eb|----3----3-------1--3----3----3--------------|
                                                
Gb|---------------------------------------------|
Db|---------------------------------------------|
Ab|-------------1--------------------1----------|
Eb|--3--3----3-------1--3----3----3-------1--3--|
                                                
Gb|---------------------------------------------|
Db|---------------------------------3h5---------|  x2
Ab|------------1--------------------------5--4--|
Eb|----3----3-------1--3----3----3--------------|
                                       
Gb|---------------------------------------------|
Db|---------------------------------------------|
Ab|--3-----------------1------------------------|
Eb|---------------------------------------------|
                                                 
Gb|---------------------------------------------|
Db|---------------------------------------------|
Ab|-------------1--------------------1----------|
Eb|--3--3----3-------1--3----3----3-------3--1--|
                                      
Gb|---------------------------------------------|
Db|---------------------------------------------|
Ab|--3-----------------1------------------------|
Eb|---------------------------------------------|

Gb|---------------------------------------------|
Db|-3--3--3--3--3--3--3--3--3--3--3--3--3--3--4-|
Ab|---------------------------------------------|
Eb|---------------------------------------------|
                                       
Gb|---------------------------------------------|
Db|---------------------------------------------|
Ab|--3--------------1----------------0----------|
Eb|-----------------------------------------4---|
                                           
Gb|---------------------------------------------|
Db|---------------------------------------------|  x2
Ab|--3-----1--1----------------1--1-------------|
Eb|----------------3------1-------------3-------|
                                            
Gb|---------------------------------------------|
Db|---------------------------------------------|
Ab|--5--5--5--5--5--5--5--5--5/-10\---5/-10\----|
Eb|---------------------------------------------|
                                               
Gb|---------------------------------------------|
Db|---------------------------------------------|
Ab|------------1--------------------1-----------|
Eb|----3----3-------1--3----3----3-------1--3---|
                                                
Gb|---------------------------------------------|
Db|---------------------------------3h5---3--0--|
Ab|------------1--------------------------------|
Eb|----3----3-------1--3----3----3--------------|
                                                
Gb|---------------------------------------------|
Db|---------------------------------------------|
Ab|--1----------1--------------------1----------|
Eb|-----3----3-------1--3----3----3-------1--3--|
                                                  
Gb|---------------------------------------------|
Db|---------------------------------3/5---3--0--|
Ab|------------1--------------------------------|
Eb|----3----3-------1--3----3----3--------------|

Thanks, please rate it after you learn it.
_TheBassist01_
Comments