Kiss - Anything For My Baby Chords & Tabs

 

Anything For My Baby Chords & Tabs

Kiss Chords & Tabs

Version: 1 Type: Bass Tab 0 ratings
1 star 2 stars 3 stars 4 stars 5 stars
comments

Anything For My Baby Bass Tab

Anything for my baby by Kiss
Tune down 1/2 step

Gb|----------------------------------------------------|
Db|---------------6------------------------------------|
Ab|---7-7-7-7---9---9----------------------------------|
Eb|-----------------------7----------------------------|
      |------2x-----|

Gb|----------------------------------------------------|
Db|----------------------------------------------------|
Ab|-------------------3-5-----------------------3-5----|
Eb|---7--------3----3------5--3--2-1-2--3--3--3--------|

Gb|----------------------------------------------------|
Db|-------------------------------------7-8-9----------|
Ab|----------------------2-----------------------------|
Eb|---5--5-3--2-1-2--3-3---2-3--5--7-------------------|
[ Tab from: http://www.guitartabs.cc/tabs/k/kiss/anything_for_my_baby_btab.html ]
Gb|----------------------------------------------------|
Db|----------------------------------------------------|
Ab|------------3-5------------------------3-5----------|
Eb|---3--3--3------5--5--3--2-1-2-3--3--3--------------|

Gb|----------------------------------------------------|
Db|----------------------------------------------------|
Ab|------------------------2---------------------------|
Eb|---5--5-3--3-2-1-2-3--3---2-3-5---7-----------------|

Gb|----------------------------------------------------|
Db|--------9-----------6-------------------------------|
Ab|-------------7----9---9-----------------------------|
Eb|----7-7----7----7-----------------------------------|

Gb|----------------------------------------------------|
Db|---------------6------------------------------------|
Ab|---7-7-7-7---9---9----------------------------------|
Eb|----------------------------------------------------|

Thanks, please rate it after you learn it.
_TheBassist01_
Comments