Kiss - All The Way Chords & Tabs

 

All The Way Chords & Tabs

Kiss Chords & Tabs

Version: 1 Type: Bass Tab 0 ratings
1 star 2 stars 3 stars 4 stars 5 stars
comments

All The Way Bass Tab

All the way by Kiss
Tune down a half step

Gb|--------------------------|-------------------------|
Db|---------------5----------|-------------------------|
Ab|---0---5----------3--0---5|----3--------------------|
Eb|-----------2-3------------|-------------------------|

Gb|--------------------------|-------------------------|
Db|---------------5----------|--------------------5----|
Ab|---0---5----------3--0---5|----3---0---5----------3-|
Eb|-----------2-3------------|----------------2-3------|

   end.1                       end.2
Gb|--------------------------|-------------------------|
Db|--------------------------|-------------------------|
Ab|--2-2--2-2--5--5--5-5-0-3-|-2-2--2-2--5--5--5-5-6-7-|
Eb|--------------------------|-------------------------|
[ Tab from: http://www.guitartabs.cc/tabs/k/kiss/all_the_way_btab.html ]
  |------------x2-----------\ /----------x2------------|
Gb|--------------------------|-------------------------|
Db|------5-------------------|----5--------------------|
Ab|---7-----7-5--------------|-7-----7---5-7-----------|
Eb|-------------7-5--3--2--0-|---------7---------------|
       
   end.1                       end.2
Gb|--------------------------|-------------------------|
Db|--------------------------|-------------------------|
Ab|------------5--5--5-5-0-3-|-----------5--5--5-5-6-7-|
Eb|--7-7--7-7----------------|-7-7--7-7----------------|

Gb|--------------------------|-------------------------|
Db|---------------5----------|--------------------5----|
Ab|---0---5----------3--0--5/|\--3---0---5----------3--|
Eb|-----------2-3------------|----------------2-3------|

Gb|--------------------------|-------------------------|
Db|--------------------------|-------------------------|
Ab|--2-2--2-2--5--5--5-5-0-3-|-------------------------|
Eb|--------------------------|-------------------------|

Gb|--------------------------|-------------------------|
Db|---------------5----------|--------------------5----|
Ab|---0---5/\--------3--0--5/|\--3---0---5----------3--|
Eb|-----------2-3------------|----------------2-3------|

Gb|--------------------------|-------------------------|
Db|--------------------------|-------------------------|
Ab|--2-2--2-2--5--5--5-5-6-7-|-------------------------|
Eb|--------------------------|-------------------------|

Thanks, please rate it after you learn it.
_TheBassist01_
Comments