Kiss - 2000 Man Chords & Tabs

 

2000 Man Chords & Tabs

Kiss Chords & Tabs

Version: 1 Type: Tab 0 ratings
1 star 2 stars 3 stars 4 stars 5 stars
comments

2000 Man Tab

   
2000 Man by KISS
From the album Dynasty
--------------------------------------------------------------------

                                                              2X
e:---------------------------------------------------------------------------|
B:---------------------------------------------------------------------------|
G:--------------------------------------9-----9-----9----------------------7-|
D:------7-----7-----7---7-----7-----7---9-9-9-9-9-9-9-9-7-----7-----7----7-7-|
A:----7-7-7-7-7-7-7-7-7-7-7-7-7-7-7-7-7-7-7-7-7-7-7-7-7-7-7-7-7-7-7-7---/5-5-|
E:---/5-5-5-5-5-5-5-5-5-5-5-5-5-5-5-5-5---0-0---0-0---0-5-5-5-5-5-5-5--------|


e:---------------------------------------------------------------------------|
B:----------------------------------------7~---------------------------------|
G:----7-----7---7-----7-----7-------------7~-------------7-----7-----7---7---|
D:7-7-7-7-7-7-7-7-7-7-7-7-7-7-7-7---------7~-7-----7---7-7-7-7-7-7-7-7-7-7-7-|
A:5-5-5-5-5-5-5-5-5-5-5-5-5-5-5-7-7-7-7-7----7-7-7-7--/5-5-5-5-5-5-5-5-5-5-5-|
E:------------------------------5-5-5-5-5----5-5-5-5-------------------------|


e:---------------------------------------------------------------------------|
B:---------------------------------------------------------------------------|
G:--7-----7-------------------9-------------9-------------9-------------9----|
D:7-7-7-7-7-7-7---------------9-------------9-------------9-------------9----|
A:5-5-5-5-5-5-7-7-7-7-7-7-7---7-7-7-7-7-7-7-7-7-7-7-7-7-7-7-7-7-7-7-7-7-7----|
E:------------5-5-5-5-5-5-5---0-0-0-0-0-0-0-0-0-0-0-0-0-0-0-0-0-0-0-0-0-0----|
 
 
e:-----|
B:-----|
G:-----|
D:-----|
A:-----|
E:-----|


   "Ya know my wife..."                                     2x             "D
e:---------------------------------------------------------------------------|
B:---------------------------------------------------------------------------|
G:---------------------------------------------------------------------------|
D:-------------------------------------9/9--9-9--9-9-------------------------|
A:---7/7--7-7--7-7-----7/7--7-7--7-7---6/7--7-7--7-7---7/7--7-7--7-7---------|
E:---4/5--5-5--5-5-----4/5--5-5--5-5-------------------4/5--5-5--5-5---------|


  on't you know.."
e:---------------------------------------------------------------------------|
B:---------------------------------------------------------------------------|
G:----------------------------------------------------------7----------------|
D:----------7/7-7-7--7/7-7-7--7/7-7-7--7/7-7-7--------------7----------------|
A:----------4/5-5-5--4/5-5-5--4/5-5-5--4/5-5-5--7/7--7-7--7-5--7/7--7-7--7-7-|
E:----------------------------------------------4/5--5-5--5----4/5--5-5--5-5-|


e:---------------------------------------------------------------------------|
B:---------------------------------------------------------------------------|
G:------------------------------------------------------9-------------9~-----|
D:--7/7-7-7--7/7-7-7--7/7-7-7--7/7-7-7------------------9-------------9~-----|
A:--4/5-5-5--4/5-5-5--4/5-5-5--4/5-5-5--7/7-7-7--7/7-7--7-------------7~-----|
E:--------------------------------------4/5-5-5--4/5-5--0-0-0-0-0-0-0-0~-----|

[ Tab from: http://www.guitartabs.cc/tabs/k/kiss/2000_man_tab.html ]
            "Oh daddy..."                  "Oh mommy..."                 "oh
e:---------------------------------------------------------------------------|
B:---------------3--------2/3---3/2-------------3-------------5--4--2--------|
G:------2~---2---2--2-----2/2---2/2----2~---2---2--2----------4--4--2----7---|
D:------2~---2---0--2-----2/4---4/2----2~---2---0--2----------6--4--2----7---|
A:------0~---0------0------------------0~---0------0-------0-------------5-5-|
E:---------------------------------------------------------------------------|


  daddy...."
e:---------------------------------------------------------------------------|
B:---------------------------------------------------------------------------|
G:--7-----7-----7-----7-----7-----7-----4-----4-----4-----4-----4-----4-----4|
D:--7-----7-----7-----7-----7-----7-----4-----4-----4-----4-----4-----4-----4|
A:5-5-5-5-5-5-5-5-5-5-5-5-5-5-5-5-5-5-5-2-2-2-2-2-2-2-2-2-2-2-2-2-2-2-2-2-2-2|
E:---------------------------------------------------------------------------|


                       "come down crashin"
e:---------------------------------------------------------------------------|
B:------------------------3---3---3------------------------------------------|
G:-----4------2-----------2---2---2---2------------------4-------9-----------|
D:-----4------2-----------0---0---0---2----2-------------4-------9-------2---|
A:-2-2-2-2-2--0--0-0-0-0--------------0----2-------------2-------7-------2---|
E:-----------------------------------------0-0-0-0-0-0-0---------0-------0-0-|


e:---------------------|
B:---------------------|
G:----------4------9---|
D:----------4------9---|
A:----------2------7---|
E:0-0-0-0-0--------0---|


e:-------------------------------------------------------------------------5-|
B:-----------------------------------------------------------------------5---|
G:---------------9---------------9---------------9---------------9----7b-----|
D:---------------9---------------9---------------9---------------9-----------|
A:---7-7-7-7-7-7-7---7-7-7-7-7-7-7---7-7-7-7-7-7-7---7-7-7-7-7-7-7-----------|
E:---0-0-0-0-0-0-0---0-0-0-0-0-0-0---0-0-0-0-0-0-0---0-0-0-0-0-0-0-----------|


e:-------------5--------------5-------5------5-------5------5-----5------5---|
B:-----------5--------------5--------------5--------------5-----5------5-----|
G:-7b~~---7b------7b~~---7b-----7b------7b-----7b------7b----7b-----7b-----7b|
D:---------------------------------------------------------------------------|
A:---------------------------------------------------------------------------|
E:---------------------------------------------------------------------------|


e:---5-----------------------------------|
B:-5-------10~----10~----10~----10~------|
G:------6~-----7~-----8~-----9~-----7~---|
D:---------------------------------------|
A:---------------------------------------|
E:---------------------------------------|


e:--------7------7-----7-----7------7----------10-----10-------10-----10-----|
B:------7------------7------------7---------10--------------10--------------1|
G:---5b-----5b----5b----5b-----5b-------12b------12b----12b------12b-----12--|
D:---------------------------------------------------------------------------|
A:---------------------------------------------------------------------------|
E:---------------------------------------------------------------------------|


e:--10---------12------12---12-----------10-----10-----10--------------------|
B:0---------12--------------12--------10---------------10----------3----3----|
G:------14b------14b-----14b------12b------12b-----12b------2----2-2----2-2--|
D:----------------------------------------------------------2----2-0----0-2--|
A:----------------------------------------------------------0----0--------0--|
E:---------------------------------------------------------------------------|


e:----------|
B:---3---3--|
G:-2-2---2-2|
D:-2-0---0-2|
A:-0-------0|
E:----------|
Comments