Kispal Es A Borz - Zsakmanyallat Chords & Tabs

 

Zsakmanyallat Chords & Tabs

Kispal Es A Borz Chords & Tabs

Version: 1 Type: Tab 0 ratings
1 star 2 stars 3 stars 4 stars 5 stars
comments

Zsakmanyallat Tab

   
Kispál és a Borz: Zsákmányállat
-------------------------------


INTRO
e:-------------------------------------------------
H:-------------------------------------------------
G:10-97-9-7----------------10-97-9-7----------7-xx-
D:-----------10-10-9------------------10-9-10------
A:-------------------10-xx-------------------------
E:-------------------------------------------------

e:-------------------------------------------------
H:------------------------------------10-----------
G:10-97-9-7----------------10-9-10-12--------------
D:-----------10-10-9-------------------------------
A:-------------------10-xx-------------------------
E:-------------------------------------------------

VERSE 1
e:---------------------------------------------------------------------10--10-
H:10-------/13-10--10--------/13-/13-10--10--------/13-10--10--------10--10---
G:---12-(12)----------12-(12)---------------12-(12)-----------12-(12)---------
D:----------------------------------------------------------------------------
A:----------------------------------------------------------------------------
E:----------------------------------------------------------------------------

INTRO (más ritmus!)

VERSE 1

BRIDGE 1
|--/10------------/10------------/10-----------------------
|----------------------------------------------------------
|------10-12----------10-12----------10-12---------9----9--
|----------------------------------------------------------
|------------11----------------------------11---/10--/10---
|---------------------------11-----------------------------

INTRO (más ritmus!)

VERSE 1

VERSE 2
|----------------------------|---|------------------------------------0---2-2-2---0-
|--2---2-3-5-3-2---2-3-2-----|---|----2---3-2-----------2------------0----3-3-3---0-
|--2---------------------2-4-|---|--4---4-----4---2-4-2-----4-2-----1-----2-2-2---1-
|--2-------------------------|-%-|---------------------------------2------0-0-0---2-
|----------------------------|---|--------------------------------2-----------------
|----------------------------|---|--------------------------------------------------

BRIDGE 2
|--------------------------------------------------------
|--------------------------------------------------------
|14-12-10/12-14-xxxxxx1414-14-12-10/12-12-xxxxxx---------
|12-12-10/12-12-xxxxxx1212-12-12-10/12-12-xxxxxx---------
|--------------------------------------10----------------
|--------------------------------------------------------

|------------------------------------------------------
|------------------------------------------------------
|14-12-10/12----xxxxxx1414-14-12-10/12-12-12121212-12\-
|12-12-10/12-12-xxxxxx1212-12-12-10/12-12-12121212-10\-
|------------12------------------------10-10101010-----
|------------------------------------------------------

BRIDGE 1

INTRO (más ritmus!)

VERSE 1

VERSE 2 (2x)

VERSE 3
e:9--9-10-12--10-9-9^10^9--------9--9-10-12-10-9--9^10^9-------
H:------------------------12-12--------------------------12-12-
G:-------------------------------------------------------------
D:-------------------------------------------------------------
A:-------------------------------------------------------------
E:-------------------------------------------------------------

e:-----------------------------------------------------------10----10----
H:12-12^14^12-14(1/2)-12--10^12-10-12(1)(1)-10-/12-12-/10----10---10\-
G:-----------------------------------------------------------------------
D:-----------------------------------------------------------------------
A:-----------------------------------------------------------------------
E:-----------------------------------------------------------------------

e:9--9-10-12--10-9-9^10^9--------9--9-10-12-10-9--9^10^9-------
H:------------------------12-12--------------------------12-12-
G:-------------------------------------------------------------
D:-------------------------------------------------------------
A:-------------------------------------------------------------
E:-------------------------------------------------------------

  /\/\/\/\/\/\/\               /\/\/\/\/\/\/\
e:---------------------------------------------------------------------
H:12^14^12^14^12--14(1/2)-12--10^12^10^12^10--12(1)(1)-10-/12-12-12-
G:---------------------------------------------------------------------
D:---------------------------------------------------------------------
A:---------------------------------------------------------------------
E:---------------------------------------------------------------------

e:----------------------------
H:------------------10-10-10\-
G:7-7-7-7-7-7-7-7---9--9--9\--
D:----------------9-7--7--7\--
A:----------------------------
E:----------------------------


* Készítette Veres Balázs 1999.
*      mail: vbala@extra.hu
*      web: www.extra.hu/vbala
* a következõ tab felhasználásával:

-----------------------------------------------------------------------------------------

Kispál és a Borz - Zsákmányállat (koncert)
------------------------------------------
[ Tab from: http://www.guitartabs.cc/tabs/k/kispal_es_a_borz/zsakmanyallat_tab.html ]
INTRO
e:-------------------------------------------------
H:-------------------------------------------------
G:10-97-9-7----------------10-97-9-7----------7-xx-
D:-----------10-10-9------------------10-9-10------
A:-------------------10-xx-------------------------
E:-------------------------------------------------

e:-------------------------------------------------
H:------------------------------------10-----------
G:10-97-9-7----------------10-9-10-12--------------
D:-----------10-10-9-------------------------------
A:-------------------10-xx-------------------------
E:-------------------------------------------------

VERSE 1
e:---------------------------------------------------------------------10--10-
H:10-------/13-10--10--------/13-/13-10--10--------/13-10--10--------10--10---
G:---12-(12)----------12-(12)---------------12-(12)-----------12-(12)---------
D:----------------------------------------------------------------------------
A:----------------------------------------------------------------------------
E:----------------------------------------------------------------------------

INTRO (más ritmus!)

VERSE 1

BRIDGE 1
e:------------------|---|----------------------------------|---|------------
H:15(1/2)----------|---|-----10----10---15(1/2)----------|---|-10-x-10-10-
G:---------12-14----|-2-|-----10----10------------12-14----|-2-|-10-x-10-10-
D:---------------13-|-%-|-/12----12---------------------13-|-%-|-10-x-10-10-
A:------------------|---|----------------------------------|---|------------
E:------------------|---|----------------------------------|---|------------

INTRO (más ritmus!)

VERSE 1

VERSE 2
e:---------------------------------------------------------------------
H:---------------------------------------------------------------------
G:---------9---------------------------------9-------------------------
D:11-11-12---12-11-11^12^11----10---11-11-12---12-11----11^12^11----10-
A:--------------------------12-----------------------12----------12----
E:---------------------------------------------------------------------

e:-------------------------------------------
H:-------------------------------------------
G:---------------------------------------?-?-
D:9^11^9-12--11-9--12-12---11-9----99999-?-?- (ha valaki tudja ezeket,
A:-----------------------9------12-------?-?-   irja meg)
E:-------------------------------------------

BRIDGE 2
e:-----------------------------------------------------------
H:-----------------------------------------------------------
G:14-12-10/12-14-xxxxxx1414-14-12-10/12-12-------10----10-12-
D:12-12-10/12-12-xxxxxx1212-12-12-10/12-12-10^12----12-------
A:--------------------------------------10-------------------
E:-----------------------------------------------------------

e:------------------------------------------------------
H:------------------------------------------------------
G:14-12-10/12-14-xxxxxx1414-14-12-10/12-12-12121212-12\-
D:12-12-10/12-12-xxxxxx1212-12-12-10/12-12-12121212-10\-
A:--------------------------------------10-10101010-----
E:------------------------------------------------------

BRIDGE 1

INTRO (más ritmus!)

VERSE 1

VERSE 2 (2x)

VERSE 3
e:9--9-10-12--10-9-9^10^9--------9--9-10-12-10-9--9^10^9-------
H:------------------------12-12--------------------------12-12-
G:-------------------------------------------------------------
D:-------------------------------------------------------------
A:-------------------------------------------------------------
E:-------------------------------------------------------------

e:-----------------------------------------------------------10----10----
H:12-12^14^12-14(1/2)-12--10^12-10-12(1)(1)-10-/12-12-/10----10---10\-
G:-----------------------------------------------------------------------
D:-----------------------------------------------------------------------
A:-----------------------------------------------------------------------
E:-----------------------------------------------------------------------

e:9--9-10-12--10-9-9^10^9--------9--9-10-12-10-9--9^10^9-------
H:------------------------12-12--------------------------12-12-
G:-------------------------------------------------------------
D:-------------------------------------------------------------
A:-------------------------------------------------------------
E:-------------------------------------------------------------

  /\/\/\/\/\/\/\               /\/\/\/\/\/\/\
e:---------------------------------------------------------------------
H:12^14^12^14^12--14(1/2)-12--10^12^10^12^10--12(1)(1)-10-/12-12-12-
G:---------------------------------------------------------------------
D:---------------------------------------------------------------------
A:---------------------------------------------------------------------
E:---------------------------------------------------------------------

e:----------------------------
H:------------------10-10-10\-
G:7-7-7-7-7-7-7-7---9--9--9\--
D:----------------9-7--7--7\--
A:----------------------------
E:----------------------------


--------------------------------------------------------------------------------
TAB by Szinya (szinovszkim@ieb.hu)
file by kacsalla@freemail.c3.hu
Nemhivatalos Kispál és a Borz honlap: http://come.to/kispal
--------------------------------------------------------------------------------
Comments