Kispal Es A Borz - Levesek Porbol Chords & Tabs

 

Levesek Porbol Chords & Tabs

Kispal Es A Borz Chords & Tabs

Version: 1 Type: Tab 0 ratings
1 star 2 stars 3 stars 4 stars 5 stars
comments

Levesek Porbol Tab

   
##################################################################################
# This file is the author's own work and represents their interpretation of the  #
# song. You may only use this file for private study, scholarship, or research.  #
##################################################################################

kISpÁl éS a bORz - Levesek porból


Intro:

e ------------------|-----------------|
h ------------------|-----------------|
g -0---0---0----0-0-|-0---0---0---0-0-|
D -2---2---2----2-0-|-4---4---4---4-0-|
A ------------------|-----------------|
E ------------------|-----------------|

e ------------------|-----------------|
h ------------------|-----------------|
g -0---0---0----0-0-|-0---0---0---0-0-|
D -2---2---2----2-0-|-4---4---4---4-0-|
A ------------------|-----------------|
E ------------------|-----------------|

e ------------------|-----------------|
h ------------------|-----------------|
g -0---0---0----0-0-|-0---0---0---0-0-|
D -7---7---7----7-0-|-9---9---9---9-0-|
A ------------------|-----------------|


Bridge 1:

e --5-----------|
h ----6---7-----|
g ------7---7-4-|
D --------------|
A --------------|
E --------------|


Verse 2

  E       F#7    D      E
e -0-0-0----2-2-2----5-5-5---7--7-----|
h -0-0-0----2-2-2----7-7-7---9--9-----|
g -1-1-1----3-3-3----7-7-7---9--9-----|
D -2-2-2----2-2-2----7-7-7---9--9-----|
A -2-2-2----4-4-4----5-5-5---7--7-----|
E -0-0-0----2-2-2---------------------|


Chorus


Gtr. 2

e -------------------------------|
h -------------------------------|
g -4---4-4---4-4---4---4---3---3-|
D -------------------------------|
A -------------------------------|
E -------------------------------|

e -------------------------------|
h -------------------------------|
g -4---4---6---6---4---4---2---2-|
D -------------------------------|
A -------------------------------|
E -------------------------------|

e -------------------------------|
h -------------------------------|
g -4---4---4---4---4---4---3---3-|
D -------------------------------|
A -------------------------------|
E -------------------------------|


Verse 3

Bridge 2:

e --5-----------|
h ----6---7-----|
g ------7---7-4-|
D --------------|
A --------------|

Chorus 2


Verse 4


Gtr. 2

e -------------------------------|
h -------------------------------|
g -4---4-4---4-4---4---4---3---3-|
D -------------------------------|
A -------------------------------|
E -------------------------------|

e -------------------------------|
h -------------------------------|
g -4---4---6---6---4---4---2---2-|
D -------------------------------|
A -------------------------------|
E -------------------------------|

e -------------------------------|
h -------------------------------|
g -4---4---4---4---4---4---3---3-|
D -------------------------------|
A -------------------------------|
E -------------------------------|


Break:

e ------------------|-----------------|
h ------------------|-----------------|
g -0---0---0----0-0-|-0---0---0---0-0-|
D -2---2---2----2-0-|-4---4---4---4-0-|
A ------------------|-----------------|
E ------------------|-----------------|
[ Tab from: http://www.guitartabs.cc/tabs/k/kispal_es_a_borz/levesek_porbol_tab.html ]
e ------------------|-----------------|
h ------------------|-----------------|
g -0---0---0----0-0-|-0---0---0---0-0-|
D -5---5---5----5-0-|-4---4---4---4-0-|
A ------------------|-----------------|
E ------------------|-----------------|

e ------------------|-----------------|
h ------------------|-----------------|
g -0---0---0----0-0-|-0---0---0---0-0-|
D -7---7---7----7-0-|-9---9---9---9-0-|
A ------------------|-----------------|
E ------------------|-----------------|

Chorus 3

Gtr. 2

e -------------------------------|
h -------------------------------|
g -4---4-4---4-4---4---4---3---3-|
D -------------------------------|
A -------------------------------|
E -------------------------------|

e -------------------------------|
h -------------------------------|
g -4---4---6---6---4---4---2---2-|
D -------------------------------|
A -------------------------------|
E -------------------------------|

e -------------------------------|
h -------------------------------|
g -4---4---4---4---4---4---3---3-|
D -------------------------------|
A -------------------------------|
E -------------------------------|


Solo:

e -----3---------------------|------3----------------------|
h -5-------3-5-3-5-3---0---3-|--5-------3-5-3-5-3---0---3--|
g ---------------------------|-----------------------------|
D ---------------------------|-----------------------------|
A ---------------------------|-----------------------------|
E ---------------------------|-----------------------------|

e -----3---------------------|--7---7-7-7---7----10--10|
h -5-------3-5-3-5-3---0---3-|--5---5-5-5---5----8---8-|
g ---------------------------|-------------------------|
D ---------------------------|-------------------------|
A ---------------------------|-------------------------|
E ---------------------------|-------------------------|

e -----3---------------------|------3----------------------|
h -5-------3-5-3-5-3---0---3-|--5-------3-5-3-5-3---0---3--|
g ---------------------------|-----------------------------|
D ---------------------------|-----------------------------|
A ---------------------------|-----------------------------|
E ---------------------------|-----------------------------|

e -----3---------------------|-------------------10--10|
h -5-------3-5-3-5-3---0---3-|--8---8-8-8---8----8---8-|
g ---------------------------|--7---7-7-7---7----------|
D ---------------------------|-------------------------|
A ---------------------------|-------------------------|
E ---------------------------|-------------------------|


Chorus 4

Gtr. 2

e -------------------------------|
h -------------------------------|
g -4---4-4---4-4---4---4---3---3-|
D -------------------------------|
A -------------------------------|
E -------------------------------|

e -------------------------------|
h -------------------------------|
g -4---4---6---6---4---4---2---2-|
D -------------------------------|
A -------------------------------|
E -------------------------------|

e -------------------------------|
h -------------------------------|
g -4---4---4---4---4---4---3---3-|
D -------------------------------|
A -------------------------------|
E -------------------------------|


End:

E -2/5~~ b7~~~~~-|
h ---------------|
g ---------------|
D ---------------|
A ---------------|
E ---------------|

--
by: 

Kirchner Tamás
Tamás Gergely
Comments