Kispal Es A Borz - H?sr?g? H?dver? Chords & Tabs

 

H?sr?g? H?dver? Chords & Tabs

Kispal Es A Borz Chords & Tabs

Version: 1 Type: Tab 0 ratings
1 star 2 stars 3 stars 4 stars 5 stars
comments

H?sr?g? H?dver? Tab

   
##################################################################################
# This file is the author's own work and represents their interpretation of the  #
# song. You may only use this file for private study, scholarship, or research.  #
##################################################################################  

              
Húsrágó Hídverõ

Bass:

D---5---5---5---------------------
A-3---3---3---3-0-0-0-------------
E---------------------2-2-2-0-----


Intro/Vers 
                      X3         4. 
E---------------------|  -------|  -------| 
H---------------------|  -------|  -------| 
G---------------------|  -------|  -------| 
D------5-5---5-4---4--|  ---7-5-|  ---1---| 
A-/6^7-----7-----5---5|  s6----6|  -2---2-| 
E---------------------|  -------|  -------| 
  
Közjáték I. 

E-----------------------------------------------------------------------| 
H-0-0-0-0----0--0--0-0-0-0-0---0-0-0-0-0-0-0----0--0--0-0-0-0-0---------| 
G-0-0-0-0----0--0--0-0-0-0-0---0-0-0-0-0-0-0----0--0--0-0-0-0-9---------| 
D-9-9-9/10---10-10-9-7-7-7/9---9-9-7-9-9-9/10---10-10-9-7-7/9-9---------| 
A-----------------------------------------------------------------------| 
E-----------------------------------------------------------------------| 
  
[ Tab from: http://www.guitartabs.cc/tabs/k/kispal_es_a_borz/hsrg_hdver_tab.html ]
E-----------------------------------------------------------------------| 
H-0-0-0-0----0--0--0-0-0-0-0---0-0-0-0-0-0-0----0--0-------10-----------| 
G-0-0-0-0----0--0--0-0-0-0-0---0-0-0-0-0-0-0----0--0--9/11----11--------| 
D-9-9-9/10---10-10-9-7-7-7/9---9-9-7-9-9-9/10---10-10------------9------| 
A-----------------------------------------------------------------------| 
E-----------------------------------------------------------------------| 

Vers II. 
                                                                                x3                                    4. 
E----------------------------|  -------------|  --------| 
H----------------------------|  -------------|  --------| 
G-----12-12----12-11----11---|  ----14-------|  ----8---| 
D-/14-------14-------12----12|  -13----13-12-|  --9---9-| 
A----------------------------|  -------------|  --------| 
E----------------------------|  -------------|  --------| 

Közjáték II. 
  
E-----------------------------------------------------------------------| 
H-----------------------------------------------------------------------| 
G-----------------------------------------------------------------------| 
D-5-5-------------------------5----------------------7-7-7----9---------| 
A-7-7---5-7-5-7/9-7-5-7-7-5-7-7-5-7-5-7/9-7-5-7-7-7/9-9-9-9/10-10-------| 
E-----------------------------------------------------------------------| 
  
E-------------------------| -12-| 
H-------------------------| -12-| 
g-5-5-5-x-x-x-7-7-7-x-x-x-| -12-| 
D-5-5-5-x-x-x-7-7-7-x-x-x-| ----| 
A-3-3-3-x-x-x-5-5-5-x-x-x-| ----| 
E-------------------------| ----| 


Comments