Kispal Es A Borz - 0 ?ra 2 Perc Chords & Tabs

 

0 ?ra 2 Perc Chords & Tabs

Kispal Es A Borz Chords & Tabs

Version: 1 Type: Tab 0 ratings
1 star 2 stars 3 stars 4 stars 5 stars
comments

0 ?ra 2 Perc Tab

   
Kispál és a Borz: 0 óra 2 perc
------------------------------


  C    G    Am   F
|-8----10---12---8---|
|-8----12---13---10--|
|-9----12---14---10--|
|-10---12---14---10--|
|--------------------|
|--------------------|



Riff
|------------------------------------12-13-12---------------------------------|
|-----9---10\9----------12--13--12------------13-12---------------------------|
|---9---9------9-----12-----------------------------14-13--------13----13--13-|
|-9---------------12---------------------------------------12-14----14-----14-|
|-----------------------------------------------------------------------------|
|-----------------------------------------------------------------------------|

|------------------------------------12-13-12---------------------------------|
|-----9---10\9----------12--13--12------------13-12---------------------------|
|---9---9------9-----12-----------------------------14-13--------13----13--13-|
|-9---------------12---------------------------------------12-14----14-----14-|
|-----------------------------------------------------------------------------|
|-----------------------------------------------------------------------------|



Verse
|-----------------------------------------------------------------------------|
|---------------------------------------------------------1-0-----------------|
|-------------0-------0-------2-------2-------0-------0-------2-0-------------|
|-----------2---2---2---2---3---3---3---3---2---2---2---2---------3-2-2-2-----|
|---------2-------2-------2-------2-------2-------2---------------------------|
|-----------------------------------------------------------------------------|
Ladákkal jöttek,                 lányok, fiúk, vegyest
   
|-----------------------------------------------------------------------------|
|-----------------------------------------------------------1-0---------------|
|---------------0-------0-------2-------2-------0-------0-------2-0-----------|
|-------------2---2---2---2---3---3---3---3---2---2---2---2---------3-2-2-2---|
|-----------2-------2-------2-------2-------2-------2-------------------------|
|-----------------------------------------------------------------------------|
Nyár volt, túl meleg                így aztán   szerelmesest

|-----------------------------------------------------------------------------|
|---------------------------------------------------------1-0-----------------|
|-------------0-------0-------2-------2-------0-------0-------2-0-------------|
|-----------2---2---2---2---3---3---3---3---2---2---2---2---------3-2-2-2-----|
|---------2-------2-------2-------2-------2-------2---------------------------|
|-----------------------------------------------------------------------------|
Játszotak, és tánc után          pár perccel múlt 0 óra

|-----------------------------------------------------------------------------|
|------------------------------------------------------1-0--------------------|
|----------0-------0-------2-------2-------0-------0-------2-0----------------|
|--------2---2---2---2---3---3---3---3---2---2---2---2---------3-2-2-2--------|
|------2-------2-------2-------2-------2-------2------------------------------|
|-----------------------------------------------------------------------------|
Amikor elmentek fürdeni       meztelenül    a bányatóra



Break
   C            G                 Am          F
A pénz meg csak úgy jött, ahogy zsír rá a húsra
             C                G             Am             F
Bálnák ki a partra mindenki akarja, hogy a világ is megtudja

Szeretni kell ezt....


Riff
|------------------------------------12-13-12---------------------------------|
|-----9---10\9----------12--13--12------------13-12---------------------------|
|---9---9------9-----12-----------------------------14-13--------13----13--13-|
|-9---------------12---------------------------------------12-14----14-----14-|
|-----------------------------------------------------------------------------|
|-----------------------------------------------------------------------------|

|------------------------------------12-13-12---------------------------------|
|-----9---10\9----------12--13--12------------13-12---------------------------|
|---9---9------9-----12-----------------------------14-13--------13----13--13-|
|-9---------------12---------------------------------------12-14----14-----14-|
|-----------------------------------------------------------------------------|
|-----------------------------------------------------------------------------|


Verse
|-----------------------------------------------------------------------------|
|--------------------------------------------------------1-0------------------|
|------------0-------0-------2-------2-------0-------0-------2-0--------------|
|----------2---2---2---2---3---3---3---3---2---2---2---2---------3-2-2-2------|
|--------2-------2-------2-------2-------2-------2----------------------------|
|-----------------------------------------------------------------------------|
Csak az van,    amit szeretsz, az Ördög is angyal

|-----------------------------------------------------------------------------|
|-------------------------------------------------1-0-------------------------|
|-----0-------0-------2-------2-------0-------0-------2-0---------------------|
|---2---2---2---2---3---3---3---3---2---2---2---2---------3-2-2-2-------------|
|-2-------2-------2-------2-------2-------2-----------------------------------|
|-----------------------------------------------------------------------------|
0 óra    kettő   perc       és a forevör janggal
[ Tab from: http://www.guitartabs.cc/tabs/k/kispal_es_a_borz/0_ra_2_perc_tab.html ]
|-----------------------------------------------------------------------------|
|-----------------------------------------------------1-0---------------------|
|---------0-------0-------2-------2-------0-------0-------2-0-----------------|
|-------2---2---2---2---3---3---3---3---2---2---2---2---------3-2-2-2---------|
|-----2-------2-------2-------2-------2-------2-------------------------------|
|-----------------------------------------------------------------------------|
Indítjuk a napot,            kedves  hallgatóim

|-----------------------------------------------------------------------------|
|-------------------------------------------------------1-0-------------------|
|-----------0-------0-------2-------2-------0-------0-------2-0---------------|
|---------2---2---2---2---3---3---3---3---2---2---2---2---------3-2-2-2-------|
|-------2-------2-------2-------2-------2-------2-----------------------------|
|-----------------------------------------------------------------------------|
Mindent összefröcskölt már a holdsugár máma ott kinn



Break
       C             G          Am        F
Tehát vigyázzanak az úton, akik indulnak haza
        C          G          Am
Inkább délre kéne menni, ott semmi nem 
         F
Annyira kemény



Middle
     C5          D5                  E5         F5 
Akik élnek azok délnek mennek, akik haldokolnak északnak
     C5           D5            E5             F5
Majd üdítőznek a vitorláson, és integetnek, ha elhagynak
    
valakit....

Riff 2 (a ritmus tá-ti-ti-tá-ti-ti)
|----------|--------|--------|--------|--------|---------|---------|----------|
|----------|--------|--------|--------|--------|---------|---------|----------|
|----------|--------|--------|--------|--------|---------|---------|----------|
|--9---9--9|9---9--9|9---9--9|9---9--9|9---9--9|10--10-10|10--10-10|12---10---|
|--7---7--7|7---7--7|7---7--7|7---7--7|7---7--7|8---8--8-|8---8--8-|10---8----|
|----------|--------|--------|--------|--------|---------|---------|----------|

|----------|--------|--------|--------|---------|---------|---------|---------|
|----------|--------|--------|--------|---------|---------|---------|---------|
|----------|--------|--------|--------|---------|---------|---------|---------|
|--9---9--9|9---9--9|9---9--9|9---9--9|16--16-16|16--16-16|17--17-17|19---17--|
|--7---7--7|7---7--7|7---7--7|7---7--7|14--14-14|14--14-14|15--15-15|19---15--|
|----------|--------|--------|--------|---------|---------|---------|---------|



Verse 2
|-----------------------------------------------------------------------------|
|-------------------------------------------------1-0-------------------------|
|-----------------------------------------------------2-0---------------------|
|---------------------------------------------------------3-2-2-2-------------|
|-----------------------------------------------------------------------------|
|-----------------------------------------------------------------------------|
Indítjuk a napot,            kedves  hallgatóim

|-----------------------------------------------------------------------------|
|-------------------------------------------------1-0-------------------------|
|-----------------------------------------------------2-0---------------------|
|---------------------------------------------------------3-2-2-2-------------|
|-----------------------------------------------------------------------------|
|-----------------------------------------------------------------------------|
Mindent összefröcskölt   a holdsugár    máma ott kinn

|-----------------------------------------------------------------------------|
|--------------------------------------------------1-0------------------------|
|------0-------0-------2-------2-------0-------0-------2-0--------------------|
|----2---2---2---2---3---3---3---3---2---2---2---2---------3-2-2-2------------|
|--2-------2-------2-------2-------2-------2----------------------------------|
|-----------------------------------------------------------------------------|
A kertben illatokkal       játszottak a szagok

|-----------------------------------------------------------------------------|
|----------------------------------------------------------1-0----------------|
|--------------0-------0-------2-------2-------0-------0-------2-0------------|
|------------2---2---2---2---3---3---3---3---2---2---2---2---------3-2-2-2----|
|----------2-------2-------2-------2-------2-------2--------------------------|
|-----------------------------------------------------------------------------|
Persze a szagok győztek   most is, de jók voltak az illatok is



Break
   C            G                   Am          F
A pénz meg csak úgy jött, ahogy a zsír rá a húsra
              C                 G
Bálnák, ki a partra, mindenki akarja, hogy
   Am             F
A világ is megtudja, hogy...



Middle
     C5          D5                  E5         F5 
Akik élnek azok délnek mennek, akik haldokolnak északnak
     C5           D5            E5             F5
Majd üdítőznek a vitorláson, és integetnek, ha elhagynak

valakit....


Outro riff
|------------------------------------12-13-12---------------------------------|
|-----9---10\9----------12--13--12------------13-12---------------------------|
|---9---9------9-----12-----------------------------14-13--------13----13--13-|
|-9---------------12---------------------------------------12-14----14-----14-|
|-----------------------------------------------------------------------------|
|-----------------------------------------------------------------------------|


|------------------------------------12-13-12---------------------------------|
|-----9---10\9----------12--13--12------------13-12--------------------9--9---|
|---9---9------9-----12-----------------------------14-13--------------9--9---|
|-9---------------12---------------------------------------------------9--9---|
|----------------------------------------------------------------------7--7---|
|-----------------------------------------------------------------------------|


|------------------
| Veres Balázs
| mail: vbala@extra.hu
| web: www.extra.hu/vbala


Tamás Gergő
esalyon freemail hu
Comments