Kiros - Sos Chords & Tabs

 

Sos Chords & Tabs

Kiros Chords & Tabs

Version: 1 Type: Tab

Sos Tab

   
-------------------------------------------------------------------------------
			     S.O.S - Kiros
-------------------------------------------------------------------------------
Tabbed by:AdamWL
Email:Adam___23@hotmail.com

Tuning:Standard
[ Tab from: http://www.guitartabs.cc/tabs/k/kiros/sos_tab.html ]
e|---------2--------------2--------------2--------2--------------------------|
B|-------2---2----------2---2----------2---2------3-->-----------------------|
G|-----0-------0------0-------0------0-------0----2--------------------------|
D|---2--------------2--------------0-----------------------------------------|
A|-2--------------3----------------------------------------------------------|
E|-------------------------------3-------------------------------------------|


e|-3------3------3------2----------------------------------------------------|
B|-3------3------3------3----------------------------------------------------|
G|-0--->--0--->--0--->--2----------------------------------------------------|
D|-2------2------0------0----------------------------------------------------|
A|-2------3------2------0----------------------------------------------------|
E|-0------0------3------0----------------------------------------------------|

| /  slide up
| \  slide down
| h  hammer-on
| p  pull-off
| ~  vibrato
| +  harmonic
| x  Mute note
===============================================================================