Kinky - Presidente Chords & Tabs

 

Presidente Chords & Tabs

Kinky Chords & Tabs

Version: 1 Type: Bass Tab 0 ratings
1 star 2 stars 3 stars 4 stars 5 stars
comments

Presidente Bass Tab

song:presidente
artist:kinky
album:atlas
tabbed by trpelonchaspunk
                            "PRESIDENTE"

  intro
G-------------------------|
D-------------------------|
A--3--1-1-1-3-11111-3-----| x9
E-------------------------| 



G---------------------------|
D----1--33-5----1-1-1----1-3| x2
A--3----------3--------3----|
E---------------------------|

chorus
[ Tab from: http://www.guitartabs.cc/tabs/k/kinky/presidente_btab.html ]
G-------------------------|
D-------------------------|
A--3--1-1-1-3-11111-3-----| x12
E-------------------------| 


G---------------------------|
D----1--33-5----1-1-1----1-3| x2
A--3----------3--------3----|
E---------------------------|

chorus donīt have

only guitar 224 232

G-------------------------|
D-------------------------|
A--3--1-1-1-3-11111-3-----| x6
E------------------------- 

G---------------------------|
D----1--33-5----1-1-1----1-3| x4
A--3----------3--------3----|
E---------------------------|
Comments