Kinky - Ejercicio 16 Chords & Tabs

 

Ejercicio 16 Chords & Tabs

Kinky Chords & Tabs

Version: 1 Type: Bass Tab 0 ratings
1 star 2 stars 3 stars 4 stars 5 stars
comments

Ejercicio 16 Bass Tab

song:ejercicio #16
artist:kinky
tabbed by trpelonchaspunk 

                           "EJERCICIO #16"


 
verse
 
G:------4-------------:
D:----4---------------:
A:--2-----------------:
D:----------6-7-8-----:
[ Tab from: http://www.guitartabs.cc/tabs/k/kinky/ejercicio_16_btab.html ]
variation 1:30
 
G:------------------5-------------------:
D:--------------------4---4-4-4---------:
A:----------------------4-------4-------:
D:----4-4---4-4-------------------------:

 
thanks im oscar or trpelonchaspunk and i love my girl friend sikru thanks and byke!
Comments