Kinks - You Really Got Me Chords & Tabs

 

You Really Got Me Chords & Tabs

Kinks Chords & Tabs

Version: 3 Type: Tab 0 ratings
1 star 2 stars 3 stars 4 stars 5 stars
comments

You Really Got Me Tab

e----------------------------------------------------------------------------|
b|-------------------------------3-----------3-0-3-0-3-0-3-0-----3-----------|
g|--5b6-5b6-5b6-5b6-5b6-5b6--5b6---6br5p3p0--3-0-3-0-3-0-3-0 5b6---6br5p3p0--|
d|---------------------------------------------------------------------------|
a|---------------------------------------------------------------------------|
e|---------------------------------------------------------------------------|

[ Tab from: http://www.guitartabs.cc/tabs/k/kinks/you_really_got_me_tab_ver_3.html ]
e|------------------------6p3------------------------------------------------|
B|3-0-3-0-3-----3-------------3-----3-----------3-0-3-0-3---------3----------|
G|3-0-3-0-3-5b6--6br5p3p0-------5b6---6br5p3p0--3-0-3-0-3-5b6-5b6---6br5p3p0-|
D|---------------------------------------------------------------------------|
A|---------------------------------------------------------------------------|
E|---------------------------------------------------------------------------|

e|-6p3---------------------------------------------6p3-----------------------|
B|-----3-----3----------3-0-3-0-3----------------------6p3-------------------|
G|-------5b6---6br5p3p0-3-0-3-0-3-5b6-5b6-5b6-5b6----------5b6-6br5p3p0------|
D|---------------------------------------------------------------------------|
A|---------------------------------------------------------------------------|
E|---------------------------------------------------------------------------|
Comments